999
NT  : - 1800
  0
SECTION
  2
HEADER
  9
$ACADVER
  1
AC1015
  9
$DWGCODEPAGE
  3
ANSI_1252
  9
$INSBASE
 10
0.0
 20
0.0
 30
0.0
  9
$EXTMIN
 10
-1090.00984039
 20
-876.58131079
 30
0.0
  9
$EXTMAX
 10
1978.47455773
 20
689.28066109
 30
0.0
  9
$LIMMIN
 10
-1090.00984039
 20
-876.58131079
  9
$LIMMAX
 10
1978.47455773
 20
689.28066109
  9
$FILLMODE
 70
     1
  9
$QTEXTMODE
 70
     0
  9
$LTSCALE
 40
1.0
  9
$ATTMODE
 70
     1
  9
$TEXTSTYLE
  7
Standard
  9
$LUNITS
 70
     2
  9
$LUPREC
 70
     4
  9
$AUNITS
 70
     0
  9
$AUPREC
 70
     0
  9
$ANGBASE
 50
0.0
  9
$ANGDIR
 70
     0
  9
$HANDSEED
  5
570
  9
$TILEMODE
 70
     1
  9
$VISRETAIN
 70
     0
  9
$MEASUREMENT
 70
     1
  0
ENDSEC
  0
SECTION
  2
CLASSES
  0
ENDSEC
  0
SECTION
  2
TABLES
  0
TABLE
  2
VPORT
  5
1
100
AcDbSymbolTable
 70
     1
  0
VPORT
  5
2
100
AcDbSymbolTableRecord
100
AcDbViewportTableRecord
  2
*Active
 70
     0
 10
0.0
 20
0.0
 11
1.0
 21
1.0
 12
444.23235867
 22
-93.65032485
 13
0.0
 23
0.0
 14
1.0
 24
1.0
 15
0.0
 25
0.0
 16
0.0
 26
0.0
 36
1.0
 17
0.0
 27
0.0
 37
0.0
 40
1565.861971878
 41
1.959613589
 42
50.0
 43
0.0
 44
0.0
 50
0.0
 51
0.0
 71
     0
 72
   100
 73
     1
 74
     1
 75
     0
 76
     0
 77
     0
 78
     0
  0
ENDTAB
  0
TABLE
  2
LTYPE
  5
3
100
AcDbSymbolTable
 70
    21
  0
LTYPE
  5
4
100
AcDbSymbolTableRecord
100
AcDbLinetypeTableRecord
  2
ByBlock
 70
    64
  3

 72
    65
 73
     0
 40
0.0
  0
LTYPE
  5
5
100
AcDbSymbolTableRecord
100
AcDbLinetypeTableRecord
  2
ByLayer
 70
    64
  3

 72
    65
 73
     0
 40
0.0
  0
LTYPE
  5
6
100
AcDbSymbolTableRecord
100
AcDbLinetypeTableRecord
  2
CONTINUOUS
 70
    64
  3
Solid line
 72
    65
 73
     0
 40
0.0
  0
LTYPE
  5
7
100
AcDbSymbolTableRecord
100
AcDbLinetypeTableRecord
  2
DOT
 70
    64
  3
..............
 72
    65
 73
     2
 40
2.000
 49
0.500
 74
     0
 49
-1.500
 74
     0
  0
LTYPE
  5
8
100
AcDbSymbolTableRecord
100
AcDbLinetypeTableRecord
  2
HIDDEN
 70
    64
  3
-- -- -- -- --
 72
    65
 73
     2
 40
7.000
 49
4.000
 74
     0
 49
-3.000
 74
     0
  0
LTYPE
  5
9
100
AcDbSymbolTableRecord
100
AcDbLinetypeTableRecord
  2
DASHDOT
 70
    64
  3
--.--.--.--.--
 72
    65
 73
     4
 40
8.500
 49
4.000
 74
     0
 49
-2.000
 74
     0
 49
0.500
 74
     0
 49
-2.000
 74
     0
  0
LTYPE
  5
A
100
AcDbSymbolTableRecord
100
AcDbLinetypeTableRecord
  2
STRICHPUNKT2
 70
    64
  3
--.--.--.--.--
 72
    65
 73
     4
 40
18.500
 49
10.000
 74
     0
 49
-4.000
 74
     0
 49
0.500
 74
     0
 49
-4.000
 74
     0
  0
LTYPE
  5
B
100
AcDbSymbolTableRecord
100
AcDbLinetypeTableRecord
  2
STRICHPUNKT3
 70
    64
  3
--.--.--.--.--
 72
    65
 73
     4
 40
35.500
 49
25.000
 74
     0
 49
-5.000
 74
     0
 49
0.500
 74
     0
 49
-5.000
 74
     0
  0
LTYPE
  5
13F
100
AcDbSymbolTableRecord
100
AcDbLinetypeTableRecord
  2
PHANTOM
 70
    64
  3
--..--..--..--
 72
    65
 73
     6
 40
23.000
 49
10.000
 74
     0
 49
-4.000
 74
     0
 49
0.500
 74
     0
 49
-4.000
 74
     0
 49
0.500
 74
     0
 49
-4.000
 74
     0
  0
LTYPE
  5
140
100
AcDbSymbolTableRecord
100
AcDbLinetypeTableRecord
  2
PHANTOM2
 70
    64
  3
--..--..--..--
 72
    65
 73
     6
 40
33.000
 49
20.000
 74
     0
 49
-4.000
 74
     0
 49
0.500
 74
     0
 49
-4.000
 74
     0
 49
0.500
 74
     0
 49
-4.000
 74
     0
  0
LTYPE
  5
141
100
AcDbSymbolTableRecord
100
AcDbLinetypeTableRecord
  2
PHANTOM3
 70
    64
  3
--..--..--..--
 72
    65
 73
     6
 40
50.000
 49
37.000
 74
     0
 49
-4.000
 74
     0
 49
0.500
 74
     0
 49
-4.000
 74
     0
 49
0.500
 74
     0
 49
-4.000
 74
     0
  0
LTYPE
  5
142
100
AcDbSymbolTableRecord
100
AcDbLinetypeTableRecord
  2
STR3PKT
 70
    64
  3
--...--...--...
 72
    65
 73
     8
 40
31.500
 49
20.000
 74
     0
 49
-2.500
 74
     0
 49
0.500
 74
     0
 49
-2.500
 74
     0
 49
0.500
 74
     0
 49
-2.500
 74
     0
 49
0.500
 74
     0
 49
-2.500
 74
     0
  0
LTYPE
  5
143
100
AcDbSymbolTableRecord
100
AcDbLinetypeTableRecord
  2
2STRPKT
 70
    64
  3
--.--.--.--.--
 72
    65
 73
     6
 40
28.000
 49
10.000
 74
     0
 49
-2.500
 74
     0
 49
10.000
 74
     0
 49
-2.500
 74
     0
 49
0.500
 74
     0
 49
-2.500
 74
     0
  0
LTYPE
  5
144
100
AcDbSymbolTableRecord
100
AcDbLinetypeTableRecord
  2
GESTRICHELT2
 70
    64
  3
-- -- -- -- --
 72
    65
 73
     2
 40
25.000
 49
10.000
 74
     0
 49
-15.000
 74
     0
  0
LTYPE
  5
145
100
AcDbSymbolTableRecord
100
AcDbLinetypeTableRecord
  2
2STR2PKT
 70
    64
  3
--..--..--..--
 72
    65
 73
     8
 40
31.000
 49
10.000
 74
     0
 49
-2.500
 74
     0
 49
10.000
 74
     0
 49
-2.500
 74
     0
 49
0.500
 74
     0
 49
-2.500
 74
     0
 49
0.500
 74
     0
 49
-2.500
 74
     0
  0
LTYPE
  5
146
100
AcDbSymbolTableRecord
100
AcDbLinetypeTableRecord
  2
STR3PKT2
 70
    64
  3
--...--...--...
 72
    65
 73
     8
 40
21.000
 49
10.000
 74
     0
 49
-2.500
 74
     0
 49
0.500
 74
     0
 49
-2.500
 74
     0
 49
0.500
 74
     0
 49
-2.500
 74
     0
 49
0.500
 74
     0
 49
-2.000
 74
     0
  0
LTYPE
  5
147
100
AcDbSymbolTableRecord
100
AcDbLinetypeTableRecord
  2
2STR3PKT
 70
    64
  3
--...--...--...
 72
    65
 73
    10
 40
34.000
 49
10.000
 74
     0
 49
-2.500
 74
     0
 49
10.000
 74
     0
 49
-2.500
 74
     0
 49
0.500
 74
     0
 49
-2.500
 74
     0
 49
0.500
 74
     0
 49
-2.500
 74
     0
 49
0.500
 74
     0
 49
-2.500
 74
     0
  0
LTYPE
  5
148
100
AcDbSymbolTableRecord
100
AcDbLinetypeTableRecord
  2
STRKSTR
 70
    64
  3
-- - -- - -- -
 72
    65
 73
     4
 40
30.000
 49
20.000
 74
     0
 49
-2.500
 74
     0
 49
5.000
 74
     0
 49
-2.500
 74
     0
  0
LTYPE
  5
149
100
AcDbSymbolTableRecord
100
AcDbLinetypeTableRecord
  2
STRKSTR2
 70
    64
  3
-- - -- - -- -
 72
    65
 73
     6
 40
37.500
 49
20.000
 74
     0
 49
-2.500
 74
     0
 49
5.000
 74
     0
 49
-2.500
 74
     0
 49
5.000
 74
     0
 49
-2.500
 74
     0
  0
LTYPE
  5
14A
100
AcDbSymbolTableRecord
100
AcDbLinetypeTableRecord
  2
STRKSTR3
 70
    64
  3
-- - -- - -- -
 72
    65
 73
     8
 40
45.000
 49
20.000
 74
     0
 49
-2.500
 74
     0
 49
5.000
 74
     0
 49
-2.500
 74
     0
 49
5.000
 74
     0
 49
-2.500
 74
     0
 49
5.000
 74
     0
 49
-2.500
 74
     0
  0
LTYPE
  5
14B
100
AcDbSymbolTableRecord
100
AcDbLinetypeTableRecord
  2
PUNKT2
 70
    64
  3
..............
 72
    65
 73
     2
 40
3.500
 49
0.500
 74
     0
 49
-3.000
 74
     0
  0
ENDTAB
  0
TABLE
  2
LAYER
  5
14C
100
AcDbSymbolTable
 70
    15
  0
LAYER
  5
14D
100
AcDbSymbolTableRecord
100
AcDbLayerTableRecord
  2
0
 70
    64
 62
     7
  6
CONTINUOUS
370
    -3
390
F
  0
LAYER
  5
14E
100
AcDbSymbolTableRecord
100
AcDbLayerTableRecord
  2
LE_GREEN
 70
    64
 62
     3
  6
CONTINUOUS
370
    -3
390
F
  0
LAYER
  5
14F
100
AcDbSymbolTableRecord
100
AcDbLayerTableRecord
  2
LE_RED
 70
    64
 62
     1
  6
CONTINUOUS
370
    -3
390
F
  0
LAYER
  5
150
100
AcDbSymbolTableRecord
100
AcDbLayerTableRecord
  2
LE_ALL
 70
    64
 62
     7
  6
CONTINUOUS
370
    50
390
F
  0
LAYER
  5
151
100
AcDbSymbolTableRecord
100
AcDbLayerTableRecord
  2
LE_HIDDEN1
 70
    64
 62
     3
  6
HIDDEN
370
    -3
390
F
  0
LAYER
  5
152
100
AcDbSymbolTableRecord
100
AcDbLayerTableRecord
  2
LE_HIDDEN
 70
    64
 62
     7
  6
CONTINUOUS
370
    -3
390
F
  0
LAYER
  5
153
100
AcDbSymbolTableRecord
100
AcDbLayerTableRecord
  2
LE_MIDDLE
 70
    64
 62
     7
  6
CONTINUOUS
370
    -3
390
F
  0
LAYER
  5
154
100
AcDbSymbolTableRecord
100
AcDbLayerTableRecord
  2
TXT_YELLOW
 70
    64
 62
     2
  6
CONTINUOUS
370
    -3
390
F
  0
LAYER
  5
155
100
AcDbSymbolTableRecord
100
AcDbLayerTableRecord
  2
TXT_DIM49
 70
    64
 62
     2
  6
CONTINUOUS
370
    -3
390
F
  0
LAYER
  5
156
100
AcDbSymbolTableRecord
100
AcDbLayerTableRecord
  2
TXT_ALL
 70
    64
 62
     7
  6
CONTINUOUS
370
    -3
390
F
  0
LAYER
  5
157
100
AcDbSymbolTableRecord
100
AcDbLayerTableRecord
  2
DIM49
 70
    64
 62
     4
  6
CONTINUOUS
370
    -3
390
F
  0
LAYER
  5
158
100
AcDbSymbolTableRecord
100
AcDbLayerTableRecord
  2
HATCH
 70
    64
 62
     3
  6
CONTINUOUS
370
    -3
390
F
  0
LAYER
  5
159
100
AcDbSymbolTableRecord
100
AcDbLayerTableRecord
  2
1
 70
    64
 62
     7
  6
CONTINUOUS
370
    -3
390
F
  0
LAYER
  5
15A
100
AcDbSymbolTableRecord
100
AcDbLayerTableRecord
  2
40
 70
    64
 62
     7
  6
CONTINUOUS
370
    -3
390
F
  0
LAYER
  5
15B
100
AcDbSymbolTableRecord
100
AcDbLayerTableRecord
  2
49
 70
    64
 62
     7
  6
CONTINUOUS
370
    -3
390
F
  0
ENDTAB
  0
TABLE
  2
STYLE
  5
15C
100
AcDbSymbolTable
 70
     2
  0
STYLE
  5
15D
100
AcDbSymbolTableRecord
100
AcDbTextStyleTableRecord
  2
MONOTXT
 70
     0
 40
0.0
 41
1.000
 50
0.0
 71
     0
 42
1.000
  3
monotxt.shx
  4

  0
STYLE
  5
15E
100
AcDbSymbolTableRecord
100
AcDbTextStyleTableRecord
  2
STANDARD
 70
     0
 40
0.0
 41
1.000
 50
0.0
 71
     0
 42
1.000
  3
txt
  4

  0
ENDTAB
  0
TABLE
  2
VIEW
  5
15F
100
AcDbSymbolTable
 70
     0
  0
ENDTAB
  0
TABLE
  2
UCS
  5
160
100
AcDbSymbolTable
 70
     0
  0
ENDTAB
  0
TABLE
  2
APPID
  5
161
100
AcDbSymbolTable
 70
     1
  0
APPID
  5
162
100
AcDbSymbolTableRecord
100
AcDbRegAppTableRecord
  2
ACAD
 70
     0
  0
ENDTAB
  0
TABLE
  2
DIMSTYLE
  5
163
100
AcDbSymbolTable
100
AcDbDimStyleTable
 70
     0
  0
ENDTAB
  0
TABLE
  2
BLOCK_RECORD
  5
164
100
AcDbSymbolTable
 70
    42
  0
BLOCK_RECORD
  5
1E
100
AcDbSymbolTableRecord
100
AcDbBlockTableRecord
  2
*Model_Space
  0
BLOCK_RECORD
  5
1A
100
AcDbSymbolTableRecord
100
AcDbBlockTableRecord
  2
*Paper_Space
  0
BLOCK_RECORD
  5
165
100
AcDbSymbolTableRecord
100
AcDbBlockTableRecord
  2
ANS3D02_00001
  0
BLOCK_RECORD
  5
166
100
AcDbSymbolTableRecord
100
AcDbBlockTableRecord
  2
FIG3D02_00002
  0
BLOCK_RECORD
  5
167
100
AcDbSymbolTableRecord
100
AcDbBlockTableRecord
  2
FROM3D_00003
  0
BLOCK_RECORD
  5
168
100
AcDbSymbolTableRecord
100
AcDbBlockTableRecord
  2
FROM3D_00004
  0
BLOCK_RECORD
  5
169
100
AcDbSymbolTableRecord
100
AcDbBlockTableRecord
  2
FROM3D_00005
  0
BLOCK_RECORD
  5
16A
100
AcDbSymbolTableRecord
100
AcDbBlockTableRecord
  2
FROM3D_00006
  0
BLOCK_RECORD
  5
16B
100
AcDbSymbolTableRecord
100
AcDbBlockTableRecord
  2
FROM3D_00007
  0
BLOCK_RECORD
  5
16C
100
AcDbSymbolTableRecord
100
AcDbBlockTableRecord
  2
FROM3D_00008
  0
BLOCK_RECORD
  5
16D
100
AcDbSymbolTableRecord
100
AcDbBlockTableRecord
  2
FROM3D_00009
  0
BLOCK_RECORD
  5
16E
100
AcDbSymbolTableRecord
100
AcDbBlockTableRecord
  2
FROM3D_00010
  0
BLOCK_RECORD
  5
16F
100
AcDbSymbolTableRecord
100
AcDbBlockTableRecord
  2
ANS3D03_00011
  0
BLOCK_RECORD
  5
170
100
AcDbSymbolTableRecord
100
AcDbBlockTableRecord
  2
FIG3D03_00012
  0
BLOCK_RECORD
  5
171
100
AcDbSymbolTableRecord
100
AcDbBlockTableRecord
  2
FROM3D_00013
  0
BLOCK_RECORD
  5
172
100
AcDbSymbolTableRecord
100
AcDbBlockTableRecord
  2
FROM3D_00014
  0
BLOCK_RECORD
  5
173
100
AcDbSymbolTableRecord
100
AcDbBlockTableRecord
  2
FROM3D_00015
  0
BLOCK_RECORD
  5
174
100
AcDbSymbolTableRecord
100
AcDbBlockTableRecord
  2
FROM3D_00016
  0
BLOCK_RECORD
  5
175
100
AcDbSymbolTableRecord
100
AcDbBlockTableRecord
  2
FROM3D_00017
  0
BLOCK_RECORD
  5
176
100
AcDbSymbolTableRecord
100
AcDbBlockTableRecord
  2
FROM3D_00018
  0
BLOCK_RECORD
  5
177
100
AcDbSymbolTableRecord
100
AcDbBlockTableRecord
  2
FROM3D_00019
  0
BLOCK_RECORD
  5
178
100
AcDbSymbolTableRecord
100
AcDbBlockTableRecord
  2
FROM3D_00020
  0
BLOCK_RECORD
  5
179
100
AcDbSymbolTableRecord
100
AcDbBlockTableRecord
  2
ANS3D04_00021
  0
BLOCK_RECORD
  5
17A
100
AcDbSymbolTableRecord
100
AcDbBlockTableRecord
  2
FIG3D04_00022
  0
BLOCK_RECORD
  5
17B
100
AcDbSymbolTableRecord
100
AcDbBlockTableRecord
  2
FROM3D_00023
  0
BLOCK_RECORD
  5
17C
100
AcDbSymbolTableRecord
100
AcDbBlockTableRecord
  2
FROM3D_00024
  0
BLOCK_RECORD
  5
17D
100
AcDbSymbolTableRecord
100
AcDbBlockTableRecord
  2
FROM3D_00025
  0
BLOCK_RECORD
  5
17E
100
AcDbSymbolTableRecord
100
AcDbBlockTableRecord
  2
FROM3D_00026
  0
BLOCK_RECORD
  5
17F
100
AcDbSymbolTableRecord
100
AcDbBlockTableRecord
  2
FROM3D_00027
  0
BLOCK_RECORD
  5
180
100
AcDbSymbolTableRecord
100
AcDbBlockTableRecord
  2
FROM3D_00028
  0
BLOCK_RECORD
  5
181
100
AcDbSymbolTableRecord
100
AcDbBlockTableRecord
  2
FROM3D_00029
  0
BLOCK_RECORD
  5
182
100
AcDbSymbolTableRecord
100
AcDbBlockTableRecord
  2
FROM3D_00030
  0
BLOCK_RECORD
  5
183
100
AcDbSymbolTableRecord
100
AcDbBlockTableRecord
  2
ANS3D05_00031
  0
BLOCK_RECORD
  5
184
100
AcDbSymbolTableRecord
100
AcDbBlockTableRecord
  2
FIG3D05_00032
  0
BLOCK_RECORD
  5
185
100
AcDbSymbolTableRecord
100
AcDbBlockTableRecord
  2
FROM3D_00033
  0
BLOCK_RECORD
  5
186
100
AcDbSymbolTableRecord
100
AcDbBlockTableRecord
  2
FROM3D_00034
  0
BLOCK_RECORD
  5
187
100
AcDbSymbolTableRecord
100
AcDbBlockTableRecord
  2
FROM3D_00035
  0
BLOCK_RECORD
  5
188
100
AcDbSymbolTableRecord
100
AcDbBlockTableRecord
  2
FROM3D_00036
  0
BLOCK_RECORD
  5
189
100
AcDbSymbolTableRecord
100
AcDbBlockTableRecord
  2
FROM3D_00037
  0
BLOCK_RECORD
  5
18A
100
AcDbSymbolTableRecord
100
AcDbBlockTableRecord
  2
FROM3D_00038
  0
BLOCK_RECORD
  5
18B
100
AcDbSymbolTableRecord
100
AcDbBlockTableRecord
  2
FROM3D_00039
  0
BLOCK_RECORD
  5
18C
100
AcDbSymbolTableRecord
100
AcDbBlockTableRecord
  2
FROM3D_00040
  0
ENDTAB
  0
ENDSEC
  0
SECTION
  2
BLOCKS
  0
BLOCK
  5
18D
100
AcDbEntity
  8
0
100
AcDbBlockBegin
  2
*Model_Space
 70
     0
 10
0.0
 20
0.0
 30
0.0
  3
*Model_Space
  1

  0
ENDBLK
  5
18E
100
AcDbEntity
  8
0
100
AcDbBlockEnd
  0
BLOCK
  5
18F
100
AcDbEntity
100
AcDbBlockBegin
 67
     1
  8
0
  2
*Paper_Space
 70
     0
 10
0.0
 20
0.0
 30
0.0
  3
*Paper_Space
  1

  0
ENDBLK
  5
190
100
AcDbEntity
100
AcDbBlockEnd
 67
     1
  8
0
  0
BLOCK
  5
191
100
AcDbEntity
  8
0
100
AcDbBlockBegin
  2
ANS3D02_00001
 70
    64
 10
0.0
 20
0.0
 30
0.0
  3
ANS3D02_00001
  0
INSERT
  5
192
100
AcDbEntity
  8
0
100
AcDbBlockReference
  2
FIG3D02_00002
 10
0.0
 20
0.0
 30
0.0
  0
ENDBLK
  5
193
100
AcDbEntity
  8
0
100
AcDbBlockEnd
  0
BLOCK
  5
194
100
AcDbEntity
  8
0
100
AcDbBlockBegin
  2
FIG3D02_00002
 70
    64
 10
0.0
 20
0.0
 30
0.0
  3
FIG3D02_00002
  0
INSERT
  5
195
100
AcDbEntity
  8
0
100
AcDbBlockReference
  2
FROM3D_00003
 10
0.0
 20
0.0
 30
0.0
  0
ENDBLK
  5
196
100
AcDbEntity
  8
0
100
AcDbBlockEnd
  0
BLOCK
  5
197
100
AcDbEntity
  8
0
100
AcDbBlockBegin
  2
FROM3D_00003
 70
    64
 10
0.0
 20
0.0
 30
0.0
  3
FROM3D_00003
  0
INSERT
  5
198
100
AcDbEntity
  8
0
100
AcDbBlockReference
  2
FROM3D_00004
 10
0.0
 20
0.0
 30
0.0
  0
INSERT
  5
199
100
AcDbEntity
  8
0
100
AcDbBlockReference
  2
FROM3D_00009
 10
0.0
 20
0.0
 30
0.0
  0
ENDBLK
  5
19A
100
AcDbEntity
  8
0
100
AcDbBlockEnd
  0
BLOCK
  5
19B
100
AcDbEntity
  8
0
100
AcDbBlockBegin
  2
FROM3D_00004
 70
    64
 10
0.0
 20
0.0
 30
0.0
  3
FROM3D_00004
  0
INSERT
  5
19C
100
AcDbEntity
  8
0
100
AcDbBlockReference
  2
FROM3D_00005
 10
0.0
 20
0.0
 30
0.0
  0
INSERT
  5
19D
100
AcDbEntity
  8
0
100
AcDbBlockReference
  2
FROM3D_00007
 10
0.0
 20
0.0
 30
0.0
  0
ENDBLK
  5
19E
100
AcDbEntity
  8
0
100
AcDbBlockEnd
  0
BLOCK
  5
19F
100
AcDbEntity
  8
0
100
AcDbBlockBegin
  2
FROM3D_00005
 70
    64
 10
0.0
 20
0.0
 30
0.0
  3
FROM3D_00005
  0
INSERT
  5
1A0
100
AcDbEntity
  8
0
100
AcDbBlockReference
  2
FROM3D_00006
 10
-112.73520715
 20
406.49257649
 30
0.0
  0
ENDBLK
  5
1A1
100
AcDbEntity
  8
0
100
AcDbBlockEnd
  0
BLOCK
  5
1A2
100
AcDbEntity
  8
0
100
AcDbBlockBegin
  2
FROM3D_00006
 70
    64
 10
-112.73520715
 20
406.49257649
 30
0.0
  3
FROM3D_00006
  0
LINE
  5
1A3
100
AcDbEntity
  8
0
100
AcDbLine
 10
-112.73520715
 20
406.49257649
 30
0.0
 11
-84.99550308
 21
400.27024844
 31
0.0
  0
ARC
  5
1A4
100
AcDbEntity
  8
0
100
AcDbCircle
 10
-116.67491938
 20
388.92898121
 30
0.0
 40
18.00003365
100
AcDbArc
 50
77.357182304
 51
178.236971815
  0
LINE
  5
1A5
100
AcDbEntity
  8
0
100
AcDbLine
 10
-135.81132618
 20
352.28906162
 30
0.0
 11
-134.66649043
 21
389.48276828
 31
0.0
  0
ARC
  5
1A6
100
AcDbEntity
  8
0
100
AcDbCircle
 10
-118.79503657
 20
391.07693043
 30
0.0
 40
9.00000000
100
AcDbArc
 50
-42.959797143
 51
-47.789118353
  0
ARC
  5
1A7
100
AcDbEntity
  8
0
100
AcDbCircle
 10
317.55940098
 20
391.07693043
 30
0.0
 40
9.00000000
100
AcDbArc
 50
-132.210881648
 51
-137.040202856
  0
LINE
  5
1A8
100
AcDbEntity
  8
0
100
AcDbLine
 10
334.57569059
 20
352.28906162
 30
0.0
 11
333.43085484
 21
389.48276828
 31
0.0
  0
ARC
  5
1A9
100
AcDbEntity
  8
0
100
AcDbCircle
 10
315.43928379
 20
388.92898121
 30
0.0
 40
18.00003365
100
AcDbArc
 50
1.763028185
 51
102.642817696
  0
LINE
  5
1AA
100
AcDbEntity
  8
0
100
AcDbLine
 10
311.49957156
 20
406.49257649
 30
0.0
 11
283.75986748
 21
400.27024844
 31
0.0
  0
POLYLINE
  5
1AB
100
AcDbEntity
  8
0
100
AcDb2dPolyline
 66
     1
 70
     1
  0
VERTEX
  5
1AC
100
AcDbEntity
  8
0
100
AcDbVertex
100
AcDb2dVertex
 10
352.88216694
 20
103.48080464
 30
0.0
  0
VERTEX
  5
1AD
100
AcDbEntity
  8
0
100
AcDbVertex
100
AcDb2dVertex
 10
-154.11780254
 20
103.48080464
 30
0.0
  0
VERTEX
  5
1AE
100
AcDbEntity
  8
0
100
AcDbVertex
100
AcDb2dVertex
 10
-154.11780254
 20
86.83839965
 30
0.0
  0
VERTEX
  5
1AF
100
AcDbEntity
  8
0
100
AcDbVertex
100
AcDb2dVertex
 10
352.88216694
 20
86.83839965
 30
0.0
  0
SEQEND
  5
1B0
100
AcDbEntity
  8
0
  0
ELLIPSE
  5
1B1
100
AcDbEntity
  8
0
100
AcDbEllipse
 10
304.76564861
 20
348.91839441
 30
0.0
 11
29.98579844
 21
0.92297990
 31
0.0
 40
0.03295594
 41
0.00000000
 42
1.56978192
  0
LINE
  5
1B2
100
AcDbEntity
  8
0
100
AcDbLine
 10
342.33456528
 20
103.48080464
 30
0.0
 11
334.75144705
 21
349.84137431
 31
0.0
  0
LINE
  5
1B3
100
AcDbEntity
  8
0
100
AcDbLine
 10
304.76564861
 20
349.90754029
 30
0.0
 11
312.35080347
 21
103.48080464
 31
0.0
  0
ELLIPSE
  5
1B4
100
AcDbEntity
  8
0
100
AcDbEllipse
 10
304.76564861
 20
348.91839441
 30
0.0
 11
-21.07411206
 21
-21.35138874
 31
0.0
 40
0.02316790
 41
3.14159265
 42
4.68892056
  0
ARC
  5
1B5
100
AcDbEntity
  8
0
100
AcDbCircle
 10
304.76564861
 20
348.91839441
 30
0.0
 40
30.00000000
100
AcDbArc
 50
1.763039976
 51
45.374457748
  0
LINE
  5
1B6
100
AcDbEntity
  8
0
100
AcDbLine
 10
325.83976067
 20
370.26978315
 30
0.0
 11
304.20350002
 21
391.62506766
 31
0.0
  0
ELLIPSE
  5
1B7
100
AcDbEntity
  8
0
100
AcDbEllipse
 10
283.12938796
 20
370.27367893
 30
0.0
 11
-21.07411206
 21
-21.35138874
 31
0.0
 40
0.02316790
 41
3.14159265
 42
4.68892056
  0
LINE
  5
1B8
100
AcDbEntity
  8
0
100
AcDbLine
 10
283.12938796
 20
371.26282480
 30
0.0
 11
304.76564861
 21
349.90754029
 31
0.0
  0
LINE
  5
1B9
100
AcDbEntity
  8
0
100
AcDbLine
 10
99.38218220
 20
377.80851621
 30
0.0
 11
283.12938796
 21
371.26282480
 31
0.0
  0
LINE
  5
1BA
100
AcDbEntity
  8
0
100
AcDbLine
 10
-84.36502356
 20
371.26282480
 30
0.0
 11
99.38218220
 21
377.80851621
 31
0.0
  0
LINE
  5
1BB
100
AcDbEntity
  8
0
100
AcDbLine
 10
-106.00128421
 20
349.90754029
 30
0.0
 11
-84.36502356
 21
371.26282480
 31
0.0
  0
LINE
  5
1BC
100
AcDbEntity
  8
0
100
AcDbLine
 10
-113.58643907
 20
103.48080464
 30
0.0
 11
-106.00128421
 21
349.90754029
 31
0.0
  0
LINE
  5
1BD
100
AcDbEntity
  8
0
100
AcDbLine
 10
-135.98708265
 20
349.84137431
 30
0.0
 11
-143.57020088
 21
103.48080464
 31
0.0
  0
ARC
  5
1BE
100
AcDbEntity
  8
0
100
AcDbCircle
 10
-106.00128421
 20
348.91839441
 30
0.0
 40
30.00000000
100
AcDbArc
 50
134.625542252
 51
178.236960024
  0
ELLIPSE
  5
1BF
100
AcDbEntity
  8
0
100
AcDbEllipse
 10
-106.00128421
 20
348.91839441
 30
0.0
 11
21.07411206
 21
-21.35138874
 31
0.0
 40
0.02316790
 41
1.59426475
 42
3.14159265
  0
ELLIPSE
  5
1C0
100
AcDbEntity
  8
0
100
AcDbEllipse
 10
-106.00128421
 20
348.91839441
 30
0.0
 11
29.98579844
 21
-0.92297990
 31
0.0
 40
0.03295594
 41
1.57181073
 42
3.14159265
  0
LINE
  5
1C1
100
AcDbEntity
  8
0
100
AcDbLine
 10
-105.43913562
 20
391.62506766
 30
0.0
 11
-127.07539626
 21
370.26978315
 31
0.0
  0
ELLIPSE
  5
1C2
100
AcDbEntity
  8
0
100
AcDbEllipse
 10
-84.36502356
 20
370.27367893
 30
0.0
 11
21.07411206
 21
-21.35138874
 31
0.0
 40
0.02316790
 41
1.59426475
 42
3.14159265
  0
ELLIPSE
  5
1C3
100
AcDbEntity
  8
0
100
AcDbEllipse
 10
-84.36502356
 20
370.27367893
 30
0.0
 11
1.06802310
 21
-29.98098275
 31
0.0
 40
0.00117445
 41
1.60375292
 42
3.14159265
  0
LINE
  5
1C4
100
AcDbEntity
  8
0
100
AcDbLine
 10
98.31415910
 20
406.80035308
 30
0.0
 11
-85.43304666
 21
400.25466168
 31
0.0
  0
ELLIPSE
  5
1C5
100
AcDbEntity
  8
0
100
AcDbEllipse
 10
99.38218220
 20
376.81937034
 30
0.0
 11
1.06802310
 21
-29.98098275
 31
0.0
 40
0.00117445
 41
1.60375292
 42
3.14159265
  0
ELLIPSE
  5
1C6
100
AcDbEntity
  8
0
100
AcDbEllipse
 10
99.38218220
 20
376.81937034
 30
0.0
 11
-1.06802311
 21
-29.98098275
 31
0.0
 40
0.00117445
 41
3.14159265
 42
4.67943239
  0
LINE
  5
1C7
100
AcDbEntity
  8
0
100
AcDbLine
 10
284.19741107
 20
400.25466168
 30
0.0
 11
100.45020531
 21
406.80035308
 31
0.0
  0
ELLIPSE
  5
1C8
100
AcDbEntity
  8
0
100
AcDbEllipse
 10
283.12938796
 20
370.27367893
 30
0.0
 11
-1.06802310
 21
-29.98098275
 31
0.0
 40
0.00117445
 41
3.14159265
 42
4.67943239
  0
ARC
  5
1C9
100
AcDbEntity
  8
0
100
AcDbCircle
 10
283.12938796
 20
370.27367893
 30
0.0
 40
30.00000000
100
AcDbArc
 50
45.374457748
 51
87.959795003
  0
ARC
  5
1CA
100
AcDbEntity
  8
0
100
AcDbCircle
 10
99.38218220
 20
376.81937034
 30
0.0
 40
30.00000000
100
AcDbArc
 50
87.959795003
 51
92.040204997
  0
ARC
  5
1CB
100
AcDbEntity
  8
0
100
AcDbCircle
 10
-84.36502356
 20
370.27367893
 30
0.0
 40
30.00000000
100
AcDbArc
 50
92.040204997
 51
134.625542252
  0
ENDBLK
  5
1CC
100
AcDbEntity
  8
0
100
AcDbBlockEnd
  0
BLOCK
  5
1CD
100
AcDbEntity
  8
0
100
AcDbBlockBegin
  2
FROM3D_00007
 70
    64
 10
0.0
 20
0.0
 30
0.0
  3
FROM3D_00007
  0
INSERT
  5
1CE
100
AcDbEntity
  8
0
100
AcDbBlockReference
  2
FROM3D_00008
 10
-32.61781780
 20
21.83839965
 30
0.0
  0
ENDBLK
  5
1CF
100
AcDbEntity
  8
0
100
AcDbBlockEnd
  0
BLOCK
  5
1D0
100
AcDbEntity
  8
0
100
AcDbBlockBegin
  2
FROM3D_00008
 70
    64
 10
-32.61781780
 20
21.83839965
 30
0.0
  3
FROM3D_00008
  0
LINE
  5
1D1
100
AcDbEntity
  8
0
100
AcDbLine
 10
-32.61781780
 20
21.83839965
 30
0.0
 11
-32.61781780
 21
3.83839965
 31
0.0
  0
LINE
  5
1D2
100
AcDbEntity
  8
0
100
AcDbLine
 10
14.38218220
 20
3.83839965
 30
0.0
 11
-32.61781780
 21
3.83839965
 31
0.0
  0
LINE
  5
1D3
100
AcDbEntity
  8
0
100
AcDbLine
 10
14.38218220
 20
6.83839965
 30
0.0
 11
14.38218220
 21
3.83839965
 31
0.0
  0
LINE
  5
1D4
100
AcDbEntity
  8
0
100
AcDbLine
 10
-32.61781780
 20
21.83839965
 30
0.0
 11
1.88218220
 21
21.83839965
 31
0.0
  0
LINE
  5
1D5
100
AcDbEntity
  8
0
100
AcDbLine
 10
-154.11780254
 20
86.83839965
 30
0.0
 11
-154.11780254
 21
79.83839965
 31
0.0
  0
LINE
  5
1D6
100
AcDbEntity
  8
0
100
AcDbLine
 10
1.88218220
 20
79.83839965
 30
0.0
 11
-154.11780254
 21
79.83839965
 31
0.0
  0
LINE
  5
1D7
100
AcDbEntity
  8
0
100
AcDbLine
 10
-154.11780254
 20
86.83839965
 30
0.0
 11
1.88218220
 21
86.83839965
 31
0.0
  0
POLYLINE
  5
1D8
100
AcDbEntity
  8
0
100
AcDb2dPolyline
 66
     1
  0
VERTEX
  5
1D9
100
AcDbEntity
  8
0
100
AcDbVertex
100
AcDb2dVertex
 10
-138.11781780
 20
79.83839965
 30
0.0
  0
VERTEX
  5
1DA
100
AcDbEntity
  8
0
100
AcDbVertex
100
AcDb2dVertex
 10
-138.11781780
 20
6.83839965
 30
0.0
  0
VERTEX
  5
1DB
100
AcDbEntity
  8
0
100
AcDbVertex
100
AcDb2dVertex
 10
-32.61781780
 20
6.83839965
 30
0.0
  0
SEQEND
  5
1DC
100
AcDbEntity
  8
0
  0
LINE
  5
1DD
100
AcDbEntity
  8
0
100
AcDbLine
 10
336.88218220
 20
79.83839965
 30
0.0
 11
336.88218220
 21
6.83839965
 31
0.0
  0
LINE
  5
1DE
100
AcDbEntity
  8
0
100
AcDbLine
 10
231.38218220
 20
6.83839965
 30
0.0
 11
336.88218220
 21
6.83839965
 31
0.0
  0
POLYLINE
  5
1DF
100
AcDbEntity
  8
0
100
AcDb2dPolyline
 66
     1
  0
VERTEX
  5
1E0
100
AcDbEntity
  8
0
100
AcDbVertex
100
AcDb2dVertex
 10
1.88218220
 20
6.83839965
 30
0.0
  0
VERTEX
  5
1E1
100
AcDbEntity
  8
0
100
AcDbVertex
100
AcDb2dVertex
 10
1.88218220
 20
86.83839965
 30
0.0
  0
VERTEX
  5
1E2
100
AcDbEntity
  8
0
100
AcDbVertex
100
AcDb2dVertex
 10
132.88218220
 20
86.83839965
 30
0.0
  0
SEQEND
  5
1E3
100
AcDbEntity
  8
0
  0
LINE
  5
1E4
100
AcDbEntity
  8
0
100
AcDbLine
 10
132.88218220
 20
6.83839965
 30
0.0
 11
132.88218220
 21
86.83839965
 31
0.0
  0
LINE
  5
1E5
100
AcDbEntity
  8
0
100
AcDbLine
 10
132.88218220
 20
6.83839965
 30
0.0
 11
1.88218220
 21
6.83839965
 31
0.0
  0
LINE
  5
1E6
100
AcDbEntity
  8
0
100
AcDbLine
 10
132.88218220
 20
6.83839965
 30
0.0
 11
181.88218220
 21
6.83839965
 31
0.0
  0
LINE
  5
1E7
100
AcDbEntity
  8
0
100
AcDbLine
 10
181.88218220
 20
37.65658147
 30
0.0
 11
181.88218220
 21
6.83839965
 31
0.0
  0
LINE
  5
1E8
100
AcDbEntity
  8
0
100
AcDbLine
 10
181.88218220
 20
37.65658147
 30
0.0
 11
181.38218220
 21
37.65658147
 31
0.0
  0
LINE
  5
1E9
100
AcDbEntity
  8
0
100
AcDbLine
 10
181.38218220
 20
79.83839965
 30
0.0
 11
181.38218220
 21
37.65658147
 31
0.0
  0
LINE
  5
1EA
100
AcDbEntity
  8
0
100
AcDbLine
 10
196.38218220
 20
79.83839965
 30
0.0
 11
181.38218220
 21
79.83839965
 31
0.0
  0
LINE
  5
1EB
100
AcDbEntity
  8
0
100
AcDbLine
 10
196.38218220
 20
21.83839965
 30
0.0
 11
196.38218220
 21
79.83839965
 31
0.0
  0
LINE
  5
1EC
100
AcDbEntity
  8
0
100
AcDbLine
 10
196.38218220
 20
21.83839965
 30
0.0
 11
181.88218220
 21
21.83839965
 31
0.0
  0
POLYLINE
  5
1ED
100
AcDbEntity
  8
0
100
AcDb2dPolyline
 66
     1
  0
VERTEX
  5
1EE
100
AcDbEntity
  8
0
100
AcDbVertex
100
AcDb2dVertex
 10
181.88218220
 20
6.83839965
 30
0.0
  0
VERTEX
  5
1EF
100
AcDbEntity
  8
0
100
AcDbVertex
100
AcDb2dVertex
 10
184.38218220
 20
6.83839965
 30
0.0
  0
VERTEX
  5
1F0
100
AcDbEntity
  8
0
100
AcDbVertex
100
AcDb2dVertex
 10
184.38218220
 20
3.83839965
 30
0.0
  0
SEQEND
  5
1F1
100
AcDbEntity
  8
0
  0
LINE
  5
1F2
100
AcDbEntity
  8
0
100
AcDbLine
 10
231.38218220
 20
3.83839965
 30
0.0
 11
184.38218220
 21
3.83839965
 31
0.0
  0
LINE
  5
1F3
100
AcDbEntity
  8
0
100
AcDbLine
 10
231.38218220
 20
21.83839965
 30
0.0
 11
231.38218220
 21
3.83839965
 31
0.0
  0
LINE
  5
1F4
100
AcDbEntity
  8
0
100
AcDbLine
 10
196.38218220
 20
21.83839965
 30
0.0
 11
231.38218220
 21
21.83839965
 31
0.0
  0
LINE
  5
1F5
100
AcDbEntity
  8
0
100
AcDbLine
 10
352.88216694
 20
79.83839965
 30
0.0
 11
196.38218220
 21
79.83839965
 31
0.0
  0
LINE
  5
1F6
100
AcDbEntity
  8
0
100
AcDbLine
 10
352.88216694
 20
86.83839965
 30
0.0
 11
352.88216694
 21
79.83839965
 31
0.0
  0
LINE
  5
1F7
100
AcDbEntity
  8
0
100
AcDbLine
 10
132.88218220
 20
86.83839965
 30
0.0
 11
352.88216694
 21
86.83839965
 31
0.0
  0
LINE
  5
1F8
100
AcDbEntity
  8
0
100
AcDbLine
 10
181.38218220
 20
79.83839965
 30
0.0
 11
132.88218220
 21
79.83839965
 31
0.0
  0
ENDBLK
  5
1F9
100
AcDbEntity
  8
0
100
AcDbBlockEnd
  0
BLOCK
  5
1FA
100
AcDbEntity
  8
0
100
AcDbBlockBegin
  2
FROM3D_00009
 70
    64
 10
0.0
 20
0.0
 30
0.0
  3
FROM3D_00009
  0
INSERT
  5
1FB
100
AcDbEntity
  8
0
100
AcDbBlockReference
  2
FROM3D_00010
 10
-112.20854802
 20
651.94356524
 30
0.0
  0
ENDBLK
  5
1FC
100
AcDbEntity
  8
0
100
AcDbBlockEnd
  0
BLOCK
  5
1FD
100
AcDbEntity
  8
0
100
AcDbBlockBegin
  2
FROM3D_00010
 70
    64
 10
-112.20854802
 20
651.94356524
 30
0.0
  3
FROM3D_00010
  0
ARC
  5
1FE
100
AcDbEntity
  8
LE_ALL
100
AcDbCircle
  6
PHANTOM
 62
     1
 10
-118.79503657
 20
658.07693043
 30
0.0
 40
9.00000000
100
AcDbArc
 50
-42.959797143
 51
-47.789118353
  0
LINE
  5
1FF
100
AcDbEntity
  8
LE_ALL
100
AcDbLine
  6
PHANTOM
 62
     1
 10
-135.81132618
 20
619.28906162
 30
0.0
 11
-134.66649043
 21
656.48276828
 31
0.0
  0
ARC
  5
200
100
AcDbEntity
  8
LE_ALL
100
AcDbCircle
  6
PHANTOM
 62
     1
 10
-116.67491938
 20
655.92898121
 30
0.0
 40
18.00003365
100
AcDbArc
 50
77.357182304
 51
178.236971815
  0
LINE
  5
201
100
AcDbEntity
  8
LE_ALL
100
AcDbLine
  6
PHANTOM
 62
     1
 10
-112.73520715
 20
673.49257649
 30
0.0
 11
-84.99550308
 21
667.27024844
 31
0.0
  0
ARC
  5
202
100
AcDbEntity
  8
LE_ALL
100
AcDbCircle
  6
PHANTOM
 62
     1
 10
317.55940098
 20
658.07693043
 30
0.0
 40
9.00000000
100
AcDbArc
 50
-132.210881648
 51
-137.040202856
  0
LINE
  5
203
100
AcDbEntity
  8
LE_ALL
100
AcDbLine
  6
PHANTOM
 62
     1
 10
334.57569059
 20
619.28906162
 30
0.0
 11
333.43085484
 21
656.48276828
 31
0.0
  0
ARC
  5
204
100
AcDbEntity
  8
LE_ALL
100
AcDbCircle
  6
PHANTOM
 62
     1
 10
315.43928379
 20
655.92898121
 30
0.0
 40
18.00003365
100
AcDbArc
 50
1.763028185
 51
102.642817696
  0
LINE
  5
205
100
AcDbEntity
  8
LE_ALL
100
AcDbLine
  6
PHANTOM
 62
     1
 10
311.49957156
 20
673.49257649
 30
0.0
 11
283.75986748
 21
667.27024844
 31
0.0
  0
POLYLINE
  5
206
100
AcDbEntity
  8
LE_ALL
100
AcDb2dPolyline
  6
PHANTOM
 62
     1
 66
     1
 70
     1
  0
VERTEX
  5
207
100
AcDbEntity
  8
LE_ALL
100
AcDbVertex
100
AcDb2dVertex
 10
307.63095534
 20
523.81937034
 30
0.0
  0
VERTEX
  5
208
100
AcDbEntity
  8
LE_ALL
100
AcDbVertex
100
AcDb2dVertex
 10
-108.86659094
 20
523.81937034
 30
0.0
  0
VERTEX
  5
209
100
AcDbEntity
  8
LE_ALL
100
AcDbVertex
100
AcDb2dVertex
 10
-106.00128421
 20
616.90754029
 30
0.0
  0
VERTEX
  5
20A
100
AcDbEntity
  8
LE_ALL
100
AcDbVertex
100
AcDb2dVertex
 10
-84.36502356
 20
638.26282480
 30
0.0
  0
VERTEX
  5
20B
100
AcDbEntity
  8
LE_ALL
100
AcDbVertex
100
AcDb2dVertex
 10
99.38218220
 20
644.80851621
 30
0.0
  0
VERTEX
  5
20C
100
AcDbEntity
  8
LE_ALL
100
AcDbVertex
100
AcDb2dVertex
 10
283.12938796
 20
638.26282480
 30
0.0
  0
VERTEX
  5
20D
100
AcDbEntity
  8
LE_ALL
100
AcDbVertex
100
AcDb2dVertex
 10
304.76564861
 20
616.90754029
 30
0.0
  0
SEQEND
  5
20E
100
AcDbEntity
  8
LE_ALL
  0
LINE
  5
20F
100
AcDbEntity
  8
LE_ALL
100
AcDbLine
  6
PHANTOM
 62
     1
 10
337.61471716
 20
523.81937034
 30
0.0
 11
307.63095534
 21
523.81937034
 31
0.0
  0
LINE
  5
210
100
AcDbEntity
  8
LE_ALL
100
AcDbLine
  6
PHANTOM
 62
     1
 10
337.61471716
 20
523.81937034
 30
0.0
 11
334.75144705
 21
616.84137431
 31
0.0
  0
ELLIPSE
  5
211
100
AcDbEntity
  8
LE_ALL
100
AcDbEllipse
  6
PHANTOM
 62
     1
 10
304.76564861
 20
615.91839441
 30
0.0
 11
29.98579844
 21
0.92297990
 31
0.0
 40
0.03295594
 41
6.28318531
 42
1.56978192
  0
ELLIPSE
  5
212
100
AcDbEntity
  8
LE_ALL
100
AcDbEllipse
  6
PHANTOM
 62
     1
 10
304.76564861
 20
615.91839441
 30
0.0
 11
-21.07411206
 21
-21.35138874
 31
0.0
 40
0.02316790
 41
3.14159265
 42
4.68892056
  0
ARC
  5
213
100
AcDbEntity
  8
LE_ALL
100
AcDbCircle
  6
PHANTOM
 62
     1
 10
304.76564861
 20
615.91839441
 30
0.0
 40
30.00000000
100
AcDbArc
 50
1.773477821
 51
45.374457748
  0
LINE
  5
214
100
AcDbEntity
  8
LE_ALL
100
AcDbLine
  6
PHANTOM
 62
     1
 10
325.83976067
 20
637.26978315
 30
0.0
 11
304.20350002
 21
658.62506766
 31
0.0
  0
ELLIPSE
  5
215
100
AcDbEntity
  8
LE_ALL
100
AcDbEllipse
  6
PHANTOM
 62
     1
 10
283.12938796
 20
637.27367893
 30
0.0
 11
-21.07411206
 21
-21.35138874
 31
0.0
 40
0.02316790
 41
3.14159265
 42
4.68892056
  0
ELLIPSE
  5
216
100
AcDbEntity
  8
LE_ALL
100
AcDbEllipse
  6
PHANTOM
 62
     1
 10
283.12938796
 20
637.27367893
 30
0.0
 11
-1.06802310
 21
-29.98098275
 31
0.0
 40
0.00117445
 41
3.14159265
 42
4.67943239
  0
ARC
  5
217
100
AcDbEntity
  8
LE_ALL
100
AcDbCircle
  6
PHANTOM
 62
     1
 10
283.12938796
 20
637.27367893
 30
0.0
 40
30.00000000
100
AcDbArc
 50
45.381712364
 51
87.959795003
  0
LINE
  5
218
100
AcDbEntity
  8
LE_ALL
100
AcDbLine
  6
PHANTOM
 62
     1
 10
284.19741107
 20
667.25466168
 30
0.0
 11
100.45020531
 21
673.80035308
 31
0.0
  0
ELLIPSE
  5
219
100
AcDbEntity
  8
LE_ALL
100
AcDbEllipse
  6
PHANTOM
 62
     1
 10
99.38218220
 20
643.81937034
 30
0.0
 11
-1.06802311
 21
-29.98098275
 31
0.0
 40
0.00117445
 41
3.14159265
 42
4.67943239
  0
ELLIPSE
  5
21A
100
AcDbEntity
  8
LE_ALL
100
AcDbEllipse
  6
PHANTOM
 62
     1
 10
99.38218220
 20
643.81937034
 30
0.0
 11
1.06802310
 21
-29.98098275
 31
0.0
 40
0.00117445
 41
1.60375292
 42
3.14159265
  0
ARC
  5
21B
100
AcDbEntity
  8
LE_ALL
100
AcDbCircle
  6
PHANTOM
 62
     1
 10
99.38218220
 20
643.81937034
 30
0.0
 40
30.00000000
100
AcDbArc
 50
87.959795003
 51
92.040204997
  0
LINE
  5
21C
100
AcDbEntity
  8
LE_ALL
100
AcDbLine
  6
PHANTOM
 62
     1
 10
98.31415910
 20
673.80035308
 30
0.0
 11
-85.43304666
 21
667.25466168
 31
0.0
  0
ELLIPSE
  5
21D
100
AcDbEntity
  8
LE_ALL
100
AcDbEllipse
  6
PHANTOM
 62
     1
 10
-84.36502356
 20
637.27367893
 30
0.0
 11
1.06802310
 21
-29.98098275
 31
0.0
 40
0.00117445
 41
1.60375292
 42
3.14159265
  0
ELLIPSE
  5
21E
100
AcDbEntity
  8
LE_ALL
100
AcDbEllipse
  6
PHANTOM
 62
     1
 10
-84.36502356
 20
637.27367893
 30
0.0
 11
21.07411206
 21
-21.35138874
 31
0.0
 40
0.02316790
 41
1.59426475
 42
3.14159265
  0
ARC
  5
21F
100
AcDbEntity
  8
LE_ALL
100
AcDbCircle
  6
PHANTOM
 62
     1
 10
-84.36502356
 20
637.27367893
 30
0.0
 40
30.00000000
100
AcDbArc
 50
92.040204997
 51
134.618287636
  0
LINE
  5
220
100
AcDbEntity
  8
LE_ALL
100
AcDbLine
  6
PHANTOM
 62
     1
 10
-105.43913562
 20
658.62506766
 30
0.0
 11
-127.07539626
 21
637.26978315
 31
0.0
  0
ELLIPSE
  5
221
100
AcDbEntity
  8
LE_ALL
100
AcDbEllipse
  6
PHANTOM
 62
     1
 10
-106.00128421
 20
615.91839441
 30
0.0
 11
21.07411206
 21
-21.35138874
 31
0.0
 40
0.02316790
 41
1.59426475
 42
3.14159265
  0
ELLIPSE
  5
222
100
AcDbEntity
  8
LE_ALL
100
AcDbEllipse
  6
PHANTOM
 62
     1
 10
-106.00128421
 20
615.91839441
 30
0.0
 11
29.98579844
 21
-0.92297990
 31
0.0
 40
0.03295594
 41
1.57181073
 42
3.14159265
  0
ARC
  5
223
100
AcDbEntity
  8
LE_ALL
100
AcDbCircle
  6
PHANTOM
 62
     1
 10
-106.00128421
 20
615.91839441
 30
0.0
 40
30.00000000
100
AcDbArc
 50
134.625542252
 51
178.226522179
  0
LINE
  5
224
100
AcDbEntity
  8
LE_ALL
100
AcDbLine
  6
PHANTOM
 62
     1
 10
-135.98708265
 20
616.84137431
 30
0.0
 11
-138.85035275
 21
523.81937034
 31
0.0
  0
LINE
  5
225
100
AcDbEntity
  8
LE_ALL
100
AcDbLine
  6
PHANTOM
 62
     1
 10
-108.86659094
 20
523.81937034
 30
0.0
 11
-138.85035275
 21
523.81937034
 31
0.0
  0
ENDBLK
  5
226
100
AcDbEntity
  8
0
100
AcDbBlockEnd
  0
BLOCK
  5
227
100
AcDbEntity
  8
0
100
AcDbBlockBegin
  2
ANS3D03_00011
 70
    64
 10
0.0
 20
0.0
 30
0.0
  3
ANS3D03_00011
  0
INSERT
  5
228
100
AcDbEntity
  8
0
100
AcDbBlockReference
  2
FIG3D03_00012
 10
0.0
 20
0.0
 30
0.0
  0
ENDBLK
  5
229
100
AcDbEntity
  8
0
100
AcDbBlockEnd
  0
BLOCK
  5
22A
100
AcDbEntity
  8
0
100
AcDbBlockBegin
  2
FIG3D03_00012
 70
    64
 10
0.0
 20
0.0
 30
0.0
  3
FIG3D03_00012
  0
INSERT
  5
22B
100
AcDbEntity
  8
0
100
AcDbBlockReference
  2
FROM3D_00013
 10
0.0
 20
0.0
 30
0.0
  0
ENDBLK
  5
22C
100
AcDbEntity
  8
0
100
AcDbBlockEnd
  0
BLOCK
  5
22D
100
AcDbEntity
  8
0
100
AcDbBlockBegin
  2
FROM3D_00013
 70
    64
 10
0.0
 20
0.0
 30
0.0
  3
FROM3D_00013
  0
INSERT
  5
22E
100
AcDbEntity
  8
0
100
AcDbBlockReference
  2
FROM3D_00014
 10
0.0
 20
0.0
 30
0.0
  0
INSERT
  5
22F
100
AcDbEntity
  8
0
100
AcDbBlockReference
  2
FROM3D_00019
 10
0.0
 20
0.0
 30
0.0
  0
ENDBLK
  5
230
100
AcDbEntity
  8
0
100
AcDbBlockEnd
  0
BLOCK
  5
231
100
AcDbEntity
  8
0
100
AcDbBlockBegin
  2
FROM3D_00014
 70
    64
 10
0.0
 20
0.0
 30
0.0
  3
FROM3D_00014
  0
INSERT
  5
232
100
AcDbEntity
  8
0
100
AcDbBlockReference
  2
FROM3D_00015
 10
0.0
 20
0.0
 30
0.0
  0
INSERT
  5
233
100
AcDbEntity
  8
0
100
AcDbBlockReference
  2
FROM3D_00017
 10
0.0
 20
0.0
 30
0.0
  0
ENDBLK
  5
234
100
AcDbEntity
  8
0
100
AcDbBlockEnd
  0
BLOCK
  5
235
100
AcDbEntity
  8
0
100
AcDbBlockBegin
  2
FROM3D_00015
 70
    64
 10
0.0
 20
0.0
 30
0.0
  3
FROM3D_00015
  0
INSERT
  5
236
100
AcDbEntity
  8
0
100
AcDbBlockReference
  2
FROM3D_00016
 10
672.88216694
 20
103.48080464
 30
0.0
  0
ENDBLK
  5
237
100
AcDbEntity
  8
0
100
AcDbBlockEnd
  0
BLOCK
  5
238
100
AcDbEntity
  8
0
100
AcDbBlockBegin
  2
FROM3D_00016
 70
    64
 10
672.88216694
 20
103.48080464
 30
0.0
  3
FROM3D_00016
  0
POLYLINE
  5
239
100
AcDbEntity
  8
0
100
AcDb2dPolyline
 66
     1
  0
VERTEX
  5
23A
100
AcDbEntity
  8
0
100
AcDbVertex
100
AcDb2dVertex
 10
672.88216694
 20
103.48080464
 30
0.0
  0
VERTEX
  5
23B
100
AcDbEntity
  8
0
100
AcDbVertex
100
AcDb2dVertex
 10
917.88216694
 20
103.48080464
 30
0.0
  0
VERTEX
  5
23C
100
AcDbEntity
  8
0
100
AcDbVertex
100
AcDb2dVertex
 10
917.88216694
 20
86.83839965
 30
0.0
  0
SEQEND
  5
23D
100
AcDbEntity
  8
0
  0
LINE
  5
23E
100
AcDbEntity
  8
0
100
AcDbLine
 10
672.88216694
 20
86.83839965
 30
0.0
 11
917.88216694
 21
86.83839965
 31
0.0
  0
LINE
  5
23F
100
AcDbEntity
  8
0
100
AcDbLine
 10
672.88216694
 20
86.83839965
 30
0.0
 11
672.88216694
 21
103.48080464
 31
0.0
  0
ELLIPSE
  5
240
100
AcDbEntity
  8
0
100
AcDbEllipse
 10
868.57207575
 20
370.27367893
 30
0.0
 11
29.98368874
 21
0.98914588
 31
0.0
 40
0.99936540
 41
0.00000000
 42
1.53783973
  0
LINE
  5
241
100
AcDbEntity
  8
0
100
AcDbLine
 10
868.35613689
 20
406.80035308
 30
0.0
 11
868.57207575
 21
400.25466168
 31
0.0
  0
ELLIPSE
  5
242
100
AcDbEntity
  8
0
100
AcDbEllipse
 10
868.35613689
 20
376.81937034
 30
0.0
 11
29.98368874
 21
0.98914588
 31
0.0
 40
0.99936540
 41
0.00000000
 42
1.53783973
  0
LINE
  5
243
100
AcDbEntity
  8
0
100
AcDbLine
 10
898.55576449
 20
371.26282480
 30
0.0
 11
898.33982563
 21
377.80851621
 31
0.0
  0
ELLIPSE
  5
244
100
AcDbEntity
  8
0
100
AcDbEllipse
 10
868.57207575
 20
370.27367893
 30
0.0
 11
29.98368874
 21
0.98914588
 31
0.0
 40
0.71152193
 41
6.28318531
 42
1.54732791
  0
POLYLINE
  5
245
100
AcDbEntity
  8
0
100
AcDb2dPolyline
 66
     1
  0
VERTEX
  5
246
100
AcDbEntity
  8
0
100
AcDbVertex
100
AcDb2dVertex
 10
868.57207575
 20
391.62506766
 30
0.0
  0
VERTEX
  5
247
100
AcDbEntity
  8
0
100
AcDbVertex
100
AcDb2dVertex
 10
868.57207575
 20
400.25466168
 30
0.0
  0
VERTEX
  5
248
100
AcDbEntity
  8
0
100
AcDbVertex
100
AcDb2dVertex
 10
801.38216694
 20
400.25466168
 30
0.0
  0
SEQEND
  5
249
100
AcDbEntity
  8
0
  0
POLYLINE
  5
24A
100
AcDbEntity
  8
0
100
AcDb2dPolyline
 66
     1
  0
VERTEX
  5
24B
100
AcDbEntity
  8
0
100
AcDbVertex
100
AcDb2dVertex
 10
801.38216694
 20
391.62506766
 30
0.0
  0
VERTEX
  5
24C
100
AcDbEntity
  8
0
100
AcDbVertex
100
AcDb2dVertex
 10
868.57207575
 20
391.62506766
 30
0.0
  0
VERTEX
  5
24D
100
AcDbEntity
  8
0
100
AcDbVertex
100
AcDb2dVertex
 10
869.27657518
 20
370.26978315
 30
0.0
  0
SEQEND
  5
24E
100
AcDbEntity
  8
0
  0
ELLIPSE
  5
24F
100
AcDbEntity
  8
0
100
AcDbEllipse
 10
869.27657518
 20
348.91839441
 30
0.0
 11
29.98368874
 21
0.98914588
 31
0.0
 40
0.71152193
 41
6.28318531
 42
1.54732791
  0
LINE
  5
250
100
AcDbEntity
  8
0
100
AcDbLine
 10
899.26026392
 20
349.90754029
 30
0.0
 11
898.55576449
 21
371.26282480
 31
0.0
  0
ELLIPSE
  5
251
100
AcDbEntity
  8
0
100
AcDbEllipse
 10
869.27657518
 20
348.91839441
 30
0.0
 11
29.98368874
 21
0.98914588
 31
0.0
 40
0.03074928
 41
6.28318531
 42
1.56978192
  0
LINE
  5
252
100
AcDbEntity
  8
0
100
AcDbLine
 10
869.27657518
 20
370.26978315
 30
0.0
 11
869.27657518
 21
349.84137431
 31
0.0
  0
LINE
  5
253
100
AcDbEntity
  8
0
100
AcDbLine
 10
869.27657518
 20
370.26978315
 30
0.0
 11
801.38216694
 21
370.26978315
 31
0.0
  0
LINE
  5
254
100
AcDbEntity
  8
0
100
AcDbLine
 10
789.38216694
 20
352.28906162
 30
0.0
 11
801.38216694
 21
352.28906162
 31
0.0
  0
POLYLINE
  5
255
100
AcDbEntity
  8
0
100
AcDb2dPolyline
 66
     1
  0
VERTEX
  5
256
100
AcDbEntity
  8
0
100
AcDbVertex
100
AcDb2dVertex
 10
789.38216694
 20
370.26978315
 30
0.0
  0
VERTEX
  5
257
100
AcDbEntity
  8
0
100
AcDbVertex
100
AcDb2dVertex
 10
721.48776740
 20
370.26978315
 30
0.0
  0
VERTEX
  5
258
100
AcDbEntity
  8
0
100
AcDbVertex
100
AcDb2dVertex
 10
721.48776740
 20
349.84137431
 30
0.0
  0
VERTEX
  5
259
100
AcDbEntity
  8
0
100
AcDbVertex
100
AcDb2dVertex
 10
869.27657518
 20
349.84137431
 30
0.0
  0
VERTEX
  5
25A
100
AcDbEntity
  8
0
100
AcDbVertex
100
AcDb2dVertex
 10
877.40387881
 20
103.48080464
 30
0.0
  0
SEQEND
  5
25B
100
AcDbEntity
  8
0
  0
LINE
  5
25C
100
AcDbEntity
  8
0
100
AcDbLine
 10
691.50407836
 20
349.90753095
 30
0.0
 11
683.37466905
 21
103.48080464
 31
0.0
  0
ELLIPSE
  5
25D
100
AcDbEntity
  8
0
100
AcDbEllipse
 10
721.48776740
 20
348.91839441
 30
0.0
 11
29.98368905
 21
-0.98913655
 31
0.0
 40
0.71152193
 41
1.59426452
 42
3.14159265
  0
POLYLINE
  5
25E
100
AcDbEntity
  8
0
100
AcDb2dPolyline
 66
     1
  0
VERTEX
  5
25F
100
AcDbEntity
  8
0
100
AcDbVertex
100
AcDb2dVertex
 10
721.48776740
 20
370.26978315
 30
0.0
  0
VERTEX
  5
260
100
AcDbEntity
  8
0
100
AcDbVertex
100
AcDb2dVertex
 10
722.19226018
 20
391.62506766
 30
0.0
  0
VERTEX
  5
261
100
AcDbEntity
  8
0
100
AcDbVertex
100
AcDb2dVertex
 10
789.38216694
 20
391.62506766
 30
0.0
  0
SEQEND
  5
262
100
AcDbEntity
  8
0
  0
POLYLINE
  5
263
100
AcDbEntity
  8
0
100
AcDb2dPolyline
 66
     1
  0
VERTEX
  5
264
100
AcDbEntity
  8
0
100
AcDbVertex
100
AcDb2dVertex
 10
789.38216694
 20
400.25466168
 30
0.0
  0
VERTEX
  5
265
100
AcDbEntity
  8
0
100
AcDbVertex
100
AcDb2dVertex
 10
722.19226018
 20
400.25466168
 30
0.0
  0
VERTEX
  5
266
100
AcDbEntity
  8
0
100
AcDbVertex
100
AcDb2dVertex
 10
722.40819701
 20
406.80035308
 30
0.0
  0
SEQEND
  5
267
100
AcDbEntity
  8
0
  0
LINE
  5
268
100
AcDbEntity
  8
0
100
AcDbLine
 10
801.38216694
 20
406.80035308
 30
0.0
 11
868.35613689
 21
406.80035308
 31
0.0
  0
LINE
  5
269
100
AcDbEntity
  8
0
100
AcDbLine
 10
722.40819701
 20
406.80035308
 30
0.0
 11
789.38216694
 21
406.80035308
 31
0.0
  0
LINE
  5
26A
100
AcDbEntity
  8
0
100
AcDbLine
 10
868.35613689
 20
406.80035308
 30
0.0
 11
868.35613689
 21
406.81937034
 31
0.0
  0
LINE
  5
26B
100
AcDbEntity
  8
0
100
AcDbLine
 10
789.38216694
 20
406.81937034
 30
0.0
 11
722.40819701
 21
406.81937034
 31
0.0
  0
LINE
  5
26C
100
AcDbEntity
  8
0
100
AcDbLine
 10
868.35613689
 20
406.81937034
 30
0.0
 11
801.38216694
 21
406.81937034
 31
0.0
  0
LINE
  5
26D
100
AcDbEntity
  8
0
100
AcDbLine
 10
722.40819701
 20
406.80035308
 30
0.0
 11
722.40819701
 21
406.81937034
 31
0.0
  0
ELLIPSE
  5
26E
100
AcDbEntity
  8
0
100
AcDbEllipse
 10
722.40819701
 20
376.81937034
 30
0.0
 11
29.98368905
 21
-0.98913655
 31
0.0
 40
0.99936540
 41
1.60375261
 42
3.14159265
  0
ARC
  5
26F
100
AcDbEntity
  8
0
100
AcDbCircle
 10
722.40819701
 20
376.81937034
 30
0.0
 40
30.00000000
100
AcDbArc
 50
90.000000000
 51
178.110545909
  0
LINE
  5
270
100
AcDbEntity
  8
0
100
AcDbLine
 10
692.42450796
 20
377.80850688
 30
0.0
 11
692.20857113
 21
371.26281547
 31
0.0
  0
ELLIPSE
  5
271
100
AcDbEntity
  8
0
100
AcDbEllipse
 10
722.19226018
 20
370.27367893
 30
0.0
 11
29.98368905
 21
-0.98913655
 31
0.0
 40
0.99936540
 41
1.60375261
 42
3.14159265
  0
LINE
  5
272
100
AcDbEntity
  8
0
100
AcDbLine
 10
722.19226018
 20
391.62506766
 30
0.0
 11
722.19226018
 21
400.25466168
 31
0.0
  0
ELLIPSE
  5
273
100
AcDbEntity
  8
0
100
AcDbEllipse
 10
722.19226018
 20
370.27367893
 30
0.0
 11
29.98368905
 21
-0.98913655
 31
0.0
 40
0.71152193
 41
1.59426452
 42
3.14159265
  0
POLYLINE
  5
274
100
AcDbEntity
  8
0
100
AcDb2dPolyline
 66
     1
  0
VERTEX
  5
275
100
AcDbEntity
  8
0
100
AcDbVertex
100
AcDb2dVertex
 10
692.20857113
 20
371.26281547
 30
0.0
  0
VERTEX
  5
276
100
AcDbEntity
  8
0
100
AcDbVertex
100
AcDb2dVertex
 10
691.50407836
 20
349.90753095
 30
0.0
  0
SEQEND
  5
277
100
AcDbEntity
  8
0
  0
ELLIPSE
  5
278
100
AcDbEntity
  8
0
100
AcDbEllipse
 10
721.48776740
 20
348.91839441
 30
0.0
 11
29.98368905
 21
-0.98913655
 31
0.0
 40
0.03074929
 41
1.57181072
 42
3.14159265
  0
LINE
  5
279
100
AcDbEntity
  8
0
100
AcDbLine
 10
713.36054055
 20
103.48080464
 30
0.0
 11
721.48776740
 21
349.84137431
 31
0.0
  0
ARC
  5
27A
100
AcDbEntity
  8
0
100
AcDbCircle
 10
868.35613689
 20
376.81937034
 30
0.0
 40
30.00000000
100
AcDbArc
 50
1.889471926
 51
90.000000000
  0
LINE
  5
27B
100
AcDbEntity
  8
0
100
AcDbLine
 10
907.38975033
 20
103.48080464
 30
0.0
 11
899.26026392
 21
349.90754029
 31
0.0
  0
LINE
  5
27C
100
AcDbEntity
  8
0
100
AcDbLine
 10
789.38216694
 20
352.28906162
 30
0.0
 11
789.38216694
 21
389.48276828
 31
0.0
  0
LINE
  5
27D
100
AcDbEntity
  8
0
100
AcDbLine
 10
801.38216694
 20
389.48276828
 30
0.0
 11
789.38216694
 21
389.48276828
 31
0.0
  0
LINE
  5
27E
100
AcDbEntity
  8
0
100
AcDbLine
 10
801.38216694
 20
352.28906162
 30
0.0
 11
801.38216694
 21
389.48276828
 31
0.0
  0
LINE
  5
27F
100
AcDbEntity
  8
0
100
AcDbLine
 10
801.38216694
 20
406.92901487
 30
0.0
 11
801.38216694
 21
389.48276828
 31
0.0
  0
LINE
  5
280
100
AcDbEntity
  8
0
100
AcDbLine
 10
789.38216694
 20
406.92901487
 30
0.0
 11
801.38216694
 21
406.92901487
 31
0.0
  0
LINE
  5
281
100
AcDbEntity
  8
0
100
AcDbLine
 10
789.38216694
 20
389.48276828
 30
0.0
 11
789.38216694
 21
406.92901487
 31
0.0
  0
ENDBLK
  5
282
100
AcDbEntity
  8
0
100
AcDbBlockEnd
  0
BLOCK
  5
283
100
AcDbEntity
  8
0
100
AcDbBlockBegin
  2
FROM3D_00017
 70
    64
 10
0.0
 20
0.0
 30
0.0
  3
FROM3D_00017
  0
INSERT
  5
284
100
AcDbEntity
  8
0
100
AcDbBlockReference
  2
FROM3D_00018
 10
912.38216694
 20
21.83839965
 30
0.0
  0
ENDBLK
  5
285
100
AcDbEntity
  8
0
100
AcDbBlockEnd
  0
BLOCK
  5
286
100
AcDbEntity
  8
0
100
AcDbBlockBegin
  2
FROM3D_00018
 70
    64
 10
912.38216694
 20
21.83839965
 30
0.0
  3
FROM3D_00018
  0
POLYLINE
  5
287
100
AcDbEntity
  8
0
100
AcDb2dPolyline
 66
     1
  0
VERTEX
  5
288
100
AcDbEntity
  8
0
100
AcDbVertex
100
AcDb2dVertex
 10
912.38216694
 20
21.83839965
 30
0.0
  0
VERTEX
  5
289
100
AcDbEntity
  8
0
100
AcDbVertex
100
AcDb2dVertex
 10
912.38216694
 20
3.83839965
 30
0.0
  0
VERTEX
  5
28A
100
AcDbEntity
  8
0
100
AcDbVertex
100
AcDb2dVertex
 10
870.38216694
 20
3.83839965
 30
0.0
  0
SEQEND
  5
28B
100
AcDbEntity
  8
0
  0
LINE
  5
28C
100
AcDbEntity
  8
0
100
AcDbLine
 10
870.38216694
 20
6.83839965
 30
0.0
 11
870.38216694
 21
3.83839965
 31
0.0
  0
LINE
  5
28D
100
AcDbEntity
  8
0
100
AcDbLine
 10
878.38216694
 20
21.83839965
 30
0.0
 11
912.38216694
 21
21.83839965
 31
0.0
  0
LINE
  5
28E
100
AcDbEntity
  8
0
100
AcDbLine
 10
678.38216694
 20
21.83839965
 30
0.0
 11
678.38216694
 21
3.83839965
 31
0.0
  0
LINE
  5
28F
100
AcDbEntity
  8
0
100
AcDbLine
 10
720.38216694
 20
3.83839965
 30
0.0
 11
678.38216694
 21
3.83839965
 31
0.0
  0
LINE
  5
290
100
AcDbEntity
  8
0
100
AcDbLine
 10
720.38216694
 20
6.83839965
 30
0.0
 11
720.38216694
 21
3.83839965
 31
0.0
  0
LINE
  5
291
100
AcDbEntity
  8
0
100
AcDbLine
 10
678.38216694
 20
21.83839965
 30
0.0
 11
712.38216694
 21
21.83839965
 31
0.0
  0
LINE
  5
292
100
AcDbEntity
  8
0
100
AcDbLine
 10
917.88216694
 20
79.83839965
 30
0.0
 11
672.88216694
 21
79.83839965
 31
0.0
  0
LINE
  5
293
100
AcDbEntity
  8
0
100
AcDbLine
 10
672.88216694
 20
86.83839965
 30
0.0
 11
672.88216694
 21
79.83839965
 31
0.0
  0
POLYLINE
  5
294
100
AcDbEntity
  8
0
100
AcDb2dPolyline
 66
     1
  0
VERTEX
  5
295
100
AcDbEntity
  8
0
100
AcDbVertex
100
AcDb2dVertex
 10
672.88216694
 20
86.83839965
 30
0.0
  0
VERTEX
  5
296
100
AcDbEntity
  8
0
100
AcDbVertex
100
AcDb2dVertex
 10
917.88216694
 20
86.83839965
 30
0.0
  0
VERTEX
  5
297
100
AcDbEntity
  8
0
100
AcDbVertex
100
AcDb2dVertex
 10
917.88216694
 20
79.83839965
 30
0.0
  0
SEQEND
  5
298
100
AcDbEntity
  8
0
  0
LINE
  5
299
100
AcDbEntity
  8
0
100
AcDbLine
 10
678.38216694
 20
21.83839965
 30
0.0
 11
672.88216694
 21
79.83839965
 31
0.0
  0
LINE
  5
29A
100
AcDbEntity
  8
0
100
AcDbLine
 10
940.88216694
 20
6.83839965
 30
0.0
 11
940.88216694
 21
86.83839965
 31
0.0
  0
LINE
  5
29B
100
AcDbEntity
  8
0
100
AcDbLine
 10
917.88216694
 20
86.83839965
 30
0.0
 11
940.88216694
 21
86.83839965
 31
0.0
  0
LINE
  5
29C
100
AcDbEntity
  8
0
100
AcDbLine
 10
878.88216694
 20
79.83839965
 30
0.0
 11
878.88216694
 21
21.83839965
 31
0.0
  0
LINE
  5
29D
100
AcDbEntity
  8
0
100
AcDbLine
 10
912.38216694
 20
6.83839965
 30
0.0
 11
940.88216694
 21
6.83839965
 31
0.0
  0
LINE
  5
29E
100
AcDbEntity
  8
0
100
AcDbLine
 10
712.38216694
 20
6.83839965
 30
0.0
 11
878.38216694
 21
6.83839965
 31
0.0
  0
LINE
  5
29F
100
AcDbEntity
  8
0
100
AcDbLine
 10
878.38216694
 20
79.83839965
 30
0.0
 11
878.38216694
 21
6.83839965
 31
0.0
  0
LINE
  5
2A0
100
AcDbEntity
  8
0
100
AcDbLine
 10
712.38216694
 20
79.83839965
 30
0.0
 11
712.38216694
 21
6.83839965
 31
0.0
  0
ENDBLK
  5
2A1
100
AcDbEntity
  8
0
100
AcDbBlockEnd
  0
BLOCK
  5
2A2
100
AcDbEntity
  8
0
100
AcDbBlockBegin
  2
FROM3D_00019
 70
    64
 10
0.0
 20
0.0
 30
0.0
  3
FROM3D_00019
  0
INSERT
  5
2A3
100
AcDbEntity
  8
0
100
AcDbBlockReference
  2
FROM3D_00020
 10
789.38216694
 20
673.49257649
 30
0.0
  0
ENDBLK
  5
2A4
100
AcDbEntity
  8
0
100
AcDbBlockEnd
  0
BLOCK
  5
2A5
100
AcDbEntity
  8
0
100
AcDbBlockBegin
  2
FROM3D_00020
 70
    64
 10
789.38216694
 20
673.49257649
 30
0.0
  3
FROM3D_00020
  0
LINE
  5
2A6
100
AcDbEntity
  8
LE_ALL
100
AcDbLine
  6
PHANTOM
 62
     1
 10
789.38216694
 20
673.49257649
 30
0.0
 11
801.38216694
 21
673.49257649
 31
0.0
  0
LINE
  5
2A7
100
AcDbEntity
  8
LE_ALL
100
AcDbLine
  6
PHANTOM
 62
     1
 10
718.41905016
 20
523.81937034
 30
0.0
 11
688.43317866
 21
523.81937034
 31
0.0
  0
LINE
  5
2A8
100
AcDbEntity
  8
LE_ALL
100
AcDbLine
  6
PHANTOM
 62
     1
 10
691.50407836
 20
616.90753095
 30
0.0
 11
688.43317866
 21
523.81937034
 31
0.0
  0
ELLIPSE
  5
2A9
100
AcDbEntity
  8
LE_ALL
100
AcDbEllipse
  6
PHANTOM
 62
     1
 10
721.48776740
 20
615.91839441
 30
0.0
 11
29.98368905
 21
-0.98913655
 31
0.0
 40
0.03074929
 41
1.57181072
 42
3.14159265
  0
LINE
  5
2AA
100
AcDbEntity
  8
LE_ALL
100
AcDbLine
  6
PHANTOM
 62
     1
 10
718.41905016
 20
523.81937034
 30
0.0
 11
721.48776740
 21
616.84137431
 31
0.0
  0
LINE
  5
2AB
100
AcDbEntity
  8
LE_ALL
100
AcDbLine
  6
PHANTOM
 62
     1
 10
872.34532142
 20
523.81937034
 30
0.0
 11
718.41905016
 21
523.81937034
 31
0.0
  0
LINE
  5
2AC
100
AcDbEntity
  8
LE_ALL
100
AcDbLine
  6
PHANTOM
 62
     1
 10
869.27657518
 20
616.84137431
 30
0.0
 11
872.34532142
 21
523.81937034
 31
0.0
  0
LINE
  5
2AD
100
AcDbEntity
  8
LE_ALL
100
AcDbLine
  6
PHANTOM
 62
     1
 10
721.48776740
 20
616.84137431
 30
0.0
 11
869.27657518
 21
616.84137431
 31
0.0
  0
LINE
  5
2AE
100
AcDbEntity
  8
LE_ALL
100
AcDbLine
  6
PHANTOM
 62
     1
 10
721.48776740
 20
637.26978315
 30
0.0
 11
721.48776740
 21
616.84137431
 31
0.0
  0
ELLIPSE
  5
2AF
100
AcDbEntity
  8
LE_ALL
100
AcDbEllipse
  6
PHANTOM
 62
     1
 10
721.48776740
 20
615.91839441
 30
0.0
 11
29.98368905
 21
-0.98913655
 31
0.0
 40
0.71152193
 41
1.59426452
 42
3.14135376
  0
LINE
  5
2B0
100
AcDbEntity
  8
LE_ALL
100
AcDbLine
  6
PHANTOM
 62
     1
 10
692.20857113
 20
638.26281547
 30
0.0
 11
691.50407836
 21
616.90753095
 31
0.0
  0
LINE
  5
2B1
100
AcDbEntity
  8
LE_ALL
100
AcDbLine
  6
PHANTOM
 62
     1
 10
692.42450796
 20
644.80850688
 30
0.0
 11
692.20857113
 21
638.26281547
 31
0.0
  0
ELLIPSE
  5
2B2
100
AcDbEntity
  8
LE_ALL
100
AcDbEllipse
  6
PHANTOM
 62
     1
 10
722.40819701
 20
643.81937034
 30
0.0
 11
29.98368905
 21
-0.98913655
 31
0.0
 40
0.99936540
 41
1.60375261
 42
3.14159265
  0
LINE
  5
2B3
100
AcDbEntity
  8
LE_ALL
100
AcDbLine
  6
PHANTOM
 62
     1
 10
722.40819701
 20
673.80035308
 30
0.0
 11
722.40819701
 21
673.81937034
 31
0.0
  0
LINE
  5
2B4
100
AcDbEntity
  8
LE_ALL
100
AcDbLine
  6
PHANTOM
 10
868.35613689
 20
673.81937034
 30
0.0
 11
722.40819701
 21
673.81937034
 31
0.0
  0
LINE
  5
2B5
100
AcDbEntity
  8
LE_ALL
100
AcDbLine
  6
PHANTOM
 62
     1
 10
868.35613689
 20
673.80035308
 30
0.0
 11
868.35613689
 21
673.81937034
 31
0.0
  0
ELLIPSE
  5
2B6
100
AcDbEntity
  8
LE_ALL
100
AcDbEllipse
  6
PHANTOM
 62
     1
 10
868.35613689
 20
643.81937034
 30
0.0
 11
29.98368874
 21
0.98914588
 31
0.0
 40
0.99936540
 41
6.28318531
 42
1.53783973
  0
LINE
  5
2B7
100
AcDbEntity
  8
LE_ALL
100
AcDbLine
  6
PHANTOM
 62
     1
 10
898.55576449
 20
638.26282480
 30
0.0
 11
898.33982563
 21
644.80851621
 31
0.0
  0
LINE
  5
2B8
100
AcDbEntity
  8
LE_ALL
100
AcDbLine
  6
PHANTOM
 62
     1
 10
899.26026392
 20
616.90754029
 30
0.0
 11
898.55576449
 21
638.26282480
 31
0.0
  0
LINE
  5
2B9
100
AcDbEntity
  8
LE_ALL
100
AcDbLine
  6
PHANTOM
 62
     1
 10
902.33119294
 20
523.81937034
 30
0.0
 11
899.26026392
 21
616.90754029
 31
0.0
  0
LINE
  5
2BA
100
AcDbEntity
  8
LE_ALL
100
AcDbLine
  6
PHANTOM
 62
     1
 10
902.33119294
 20
523.81937034
 30
0.0
 11
872.34532142
 21
523.81937034
 31
0.0
  0
ELLIPSE
  5
2BB
100
AcDbEntity
  8
LE_ALL
100
AcDbEllipse
  6
PHANTOM
 62
     1
 10
869.27657518
 20
615.91839441
 30
0.0
 11
29.98368874
 21
0.98914588
 31
0.0
 40
0.03074928
 41
0.0
 42
1.56978192
  0
LINE
  5
2BC
100
AcDbEntity
  8
LE_ALL
100
AcDbLine
  6
PHANTOM
 62
     1
 10
869.27657518
 20
637.26978315
 30
0.0
 11
869.27657518
 21
616.84137431
 31
0.0
  0
ELLIPSE
  5
2BD
100
AcDbEntity
  8
LE_ALL
100
AcDbEllipse
  6
PHANTOM
 62
     1
 10
869.27657518
 20
615.91839441
 30
0.0
 11
29.98368874
 21
0.98914588
 31
0.0
 40
0.71152193
 41
0.00023890
 42
1.54732791
  0
LINE
  5
2BE
100
AcDbEntity
  8
LE_ALL
100
AcDbLine
  6
PHANTOM
 62
     1
 10
868.57207575
 20
658.62506766
 30
0.0
 11
869.27657518
 21
637.26978315
 31
0.0
  0
ELLIPSE
  5
2BF
100
AcDbEntity
  8
LE_ALL
100
AcDbEllipse
  6
PHANTOM
 62
     1
 10
868.57207575
 20
637.27367893
 30
0.0
 11
29.98368874
 21
0.98914588
 31
0.0
 40
0.71152193
 41
0.00000000
 42
1.54732791
  0
ELLIPSE
  5
2C0
100
AcDbEntity
  8
LE_ALL
100
AcDbEllipse
  6
PHANTOM
 62
     1
 10
868.57207575
 20
637.27367893
 30
0.0
 11
29.98368874
 21
0.98914588
 31
0.0
 40
0.99936540
 41
0.00779083
 42
1.53783973
  0
LINE
  5
2C1
100
AcDbEntity
  8
LE_ALL
100
AcDbLine
  6
PHANTOM
 62
     1
 10
868.57207575
 20
658.62506766
 30
0.0
 11
868.57207575
 21
667.25466168
 31
0.0
  0
LINE
  5
2C2
100
AcDbEntity
  8
LE_ALL
100
AcDbLine
  6
PHANTOM
 62
     1
 10
801.38216694
 20
658.62506766
 30
0.0
 11
868.57207575
 21
658.62506766
 31
0.0
  0
LINE
  5
2C3
100
AcDbEntity
  8
LE_ALL
100
AcDbLine
  6
PHANTOM
 62
     1
 10
789.38216694
 20
651.94356524
 30
0.0
 11
801.38216694
 21
651.94356524
 31
0.0
  0
POLYLINE
  5
2C4
100
AcDbEntity
  8
LE_ALL
100
AcDb2dPolyline
  6
PHANTOM
 62
     1
 66
     1
  0
VERTEX
  5
2C5
100
AcDbEntity
  8
LE_ALL
100
AcDbVertex
100
AcDb2dVertex
 10
789.38216694
 20
667.25466168
 30
0.0
  0
VERTEX
  5
2C6
100
AcDbEntity
  8
LE_ALL
100
AcDbVertex
100
AcDb2dVertex
 10
722.19226018
 20
667.25466168
 30
0.0
  0
VERTEX
  5
2C7
100
AcDbEntity
  8
LE_ALL
100
AcDbVertex
100
AcDb2dVertex
 10
722.40819701
 20
673.80035308
 30
0.0
  0
VERTEX
  5
2C8
100
AcDbEntity
  8
LE_ALL
100
AcDbVertex
100
AcDb2dVertex
 10
868.35613689
 20
673.80035308
 30
0.0
  0
VERTEX
  5
2C9
100
AcDbEntity
  8
LE_ALL
100
AcDbVertex
100
AcDb2dVertex
 10
868.57207575
 20
667.25466168
 30
0.0
  0
VERTEX
  5
2CA
100
AcDbEntity
  8
LE_ALL
100
AcDbVertex
100
AcDb2dVertex
 10
801.38216694
 20
667.25466168
 30
0.0
  0
SEQEND
  5
2CB
100
AcDbEntity
  8
LE_ALL
  0
LINE
  5
2CC
100
AcDbEntity
  8
LE_ALL
100
AcDbLine
  6
PHANTOM
 62
     1
 10
801.38216694
 20
667.27024844
 30
0.0
 11
789.38216694
 21
667.27024844
 31
0.0
  0
ELLIPSE
  5
2CD
100
AcDbEntity
  8
LE_ALL
100
AcDbEllipse
  6
PHANTOM
 62
     1
 10
722.19226018
 20
637.27367893
 30
0.0
 11
29.98368905
 21
-0.98913655
 31
0.0
 40
0.99936540
 41
1.60375261
 42
3.13380182
  0
ELLIPSE
  5
2CE
100
AcDbEntity
  8
LE_ALL
100
AcDbEllipse
  6
PHANTOM
 62
     1
 10
722.19226018
 20
637.27367893
 30
0.0
 11
29.98368905
 21
-0.98913655
 31
0.0
 40
0.71152193
 41
1.59426452
 42
3.14159265
  0
LINE
  5
2CF
100
AcDbEntity
  8
LE_ALL
100
AcDbLine
  6
PHANTOM
 62
     1
 10
722.19226018
 20
658.62506766
 30
0.0
 11
722.19226018
 21
667.25466168
 31
0.0
  0
LINE
  5
2D0
100
AcDbEntity
  8
LE_ALL
100
AcDbLine
  6
PHANTOM
 62
     1
 10
722.19226018
 20
658.62506766
 30
0.0
 11
789.38216694
 21
658.62506766
 31
0.0
  0
LINE
  5
2D1
100
AcDbEntity
  8
LE_ALL
100
AcDbLine
  6
PHANTOM
 62
     1
 10
721.48776740
 20
637.26978315
 30
0.0
 11
722.19226018
 21
658.62506766
 31
0.0
  0
LINE
  5
2D2
100
AcDbEntity
  8
LE_ALL
100
AcDbLine
  6
PHANTOM
 62
     1
 10
789.38216694
 20
637.26978315
 30
0.0
 11
721.48776740
 21
637.26978315
 31
0.0
  0
LINE
  5
2D3
100
AcDbEntity
  8
LE_ALL
100
AcDbLine
  6
PHANTOM
 62
     1
 10
789.38216694
 20
619.28906162
 30
0.0
 11
801.38216694
 21
619.28906162
 31
0.0
  0
LINE
  5
2D4
100
AcDbEntity
  8
LE_ALL
100
AcDbLine
  6
PHANTOM
 62
     1
 10
869.27657518
 20
637.26978315
 30
0.0
 11
801.38216694
 21
637.26978315
 31
0.0
  0
LINE
  5
2D5
100
AcDbEntity
  8
LE_ALL
100
AcDbLine
  6
PHANTOM
 62
     1
 10
801.38216694
 20
651.41083735
 30
0.0
 11
789.38216694
 21
651.41083735
 31
0.0
  0
LINE
  5
2D6
100
AcDbEntity
  8
LE_ALL
100
AcDbLine
  6
PHANTOM
 10
789.38216694
 20
649.07693043
 30
0.0
 11
801.38216694
 21
649.07693043
 31
0.0
  0
POLYLINE
  5
2D7
100
AcDbEntity
  8
LE_ALL
100
AcDb2dPolyline
  6
PHANTOM
 62
     1
 66
     1
  0
VERTEX
  5
2D8
100
AcDbEntity
  8
LE_ALL
100
AcDbVertex
100
AcDb2dVertex
 10
801.38216694
 20
619.28906162
 30
0.0
  0
VERTEX
  5
2D9
100
AcDbEntity
  8
LE_ALL
100
AcDbVertex
100
AcDb2dVertex
 10
801.38216694
 20
656.48276828
 30
0.0
  0
VERTEX
  5
2DA
100
AcDbEntity
  8
LE_ALL
100
AcDbVertex
100
AcDb2dVertex
 10
789.38216694
 20
656.48276828
 30
0.0
  0
SEQEND
  5
2DB
100
AcDbEntity
  8
LE_ALL
  0
POLYLINE
  5
2DC
100
AcDbEntity
  8
LE_ALL
100
AcDb2dPolyline
  6
PHANTOM
 62
     1
 66
     1
  0
VERTEX
  5
2DD
100
AcDbEntity
  8
LE_ALL
100
AcDbVertex
100
AcDb2dVertex
 10
789.38216694
 20
619.28906162
 30
0.0
  0
VERTEX
  5
2DE
100
AcDbEntity
  8
LE_ALL
100
AcDbVertex
100
AcDb2dVertex
 10
789.38216694
 20
656.48276828
 30
0.0
  0
VERTEX
  5
2DF
100
AcDbEntity
  8
LE_ALL
100
AcDbVertex
100
AcDb2dVertex
 10
789.38216694
 20
673.92901487
 30
0.0
  0
SEQEND
  5
2E0
100
AcDbEntity
  8
LE_ALL
  0
POLYLINE
  5
2E1
100
AcDbEntity
  8
LE_ALL
100
AcDb2dPolyline
  6
PHANTOM
 66
     1
  0
VERTEX
  5
2E2
100
AcDbEntity
  8
LE_ALL
100
AcDbVertex
100
AcDb2dVertex
 10
789.38216694
 20
673.92901487
 30
0.0
  0
VERTEX
  5
2E3
100
AcDbEntity
  8
LE_ALL
100
AcDbVertex
100
AcDb2dVertex
 10
801.38216694
 20
673.92901487
 30
0.0
  0
SEQEND
  5
2E4
100
AcDbEntity
  8
LE_ALL
  0
LINE
  5
2E5
100
AcDbEntity
  8
LE_ALL
100
AcDbLine
  6
PHANTOM
 62
     1
 10
801.38216694
 20
673.92901487
 30
0.0
 11
801.38216694
 21
656.48276828
 31
0.0
  0
LINE
  5
2E6
100
AcDbEntity
  8
LE_ALL
100
AcDbLine
  6
PHANTOM
 10
789.38216694
 20
667.07693043
 30
0.0
 11
801.38216694
 21
667.07693043
 31
0.0
  0
ARC
  5
2E7
100
AcDbEntity
  8
LE_ALL
100
AcDbCircle
  6
PHANTOM
 10
868.35613689
 20
643.81937034
 30
0.0
 40
30.00000000
100
AcDbArc
 50
15.132420591
 51
90.000000000
  0
ARC
  5
2E8
100
AcDbEntity
  8
LE_ALL
100
AcDbCircle
  6
PHANTOM
 10
722.40819701
 20
643.81937034
 30
0.0
 40
30.00000000
100
AcDbArc
 50
90.000000000
 51
164.867594897
  0
ENDBLK
  5
2E9
100
AcDbEntity
  8
0
100
AcDbBlockEnd
  0
BLOCK
  5
2EA
100
AcDbEntity
  8
0
100
AcDbBlockBegin
  2
ANS3D04_00021
 70
    64
 10
0.0
 20
0.0
 30
0.0
  3
ANS3D04_00021
  0
INSERT
  5
2EB
100
AcDbEntity
  8
0
100
AcDbBlockReference
  2
FIG3D04_00022
 10
0.0
 20
0.0
 30
0.0
  0
ENDBLK
  5
2EC
100
AcDbEntity
  8
0
100
AcDbBlockEnd
  0
BLOCK
  5
2ED
100
AcDbEntity
  8
0
100
AcDbBlockBegin
  2
FIG3D04_00022
 70
    64
 10
0.0
 20
0.0
 30
0.0
  3
FIG3D04_00022
  0
INSERT
  5
2EE
100
AcDbEntity
  8
0
100
AcDbBlockReference
  2
FROM3D_00023
 10
0.0
 20
0.0
 30
0.0
  0
ENDBLK
  5
2EF
100
AcDbEntity
  8
0
100
AcDbBlockEnd
  0
BLOCK
  5
2F0
100
AcDbEntity
  8
0
100
AcDbBlockBegin
  2
FROM3D_00023
 70
    64
 10
0.0
 20
0.0
 30
0.0
  3
FROM3D_00023
  0
INSERT
  5
2F1
100
AcDbEntity
  8
0
100
AcDbBlockReference
  2
FROM3D_00024
 10
0.0
 20
0.0
 30
0.0
  0
INSERT
  5
2F2
100
AcDbEntity
  8
0
100
AcDbBlockReference
  2
FROM3D_00029
 10
0.0
 20
0.0
 30
0.0
  0
ENDBLK
  5
2F3
100
AcDbEntity
  8
0
100
AcDbBlockEnd
  0
BLOCK
  5
2F4
100
AcDbEntity
  8
0
100
AcDbBlockBegin
  2
FROM3D_00024
 70
    64
 10
0.0
 20
0.0
 30
0.0
  3
FROM3D_00024
  0
INSERT
  5
2F5
100
AcDbEntity
  8
0
100
AcDbBlockReference
  2
FROM3D_00025
 10
0.0
 20
0.0
 30
0.0
  0
INSERT
  5
2F6
100
AcDbEntity
  8
0
100
AcDbBlockReference
  2
FROM3D_00027
 10
0.0
 20
0.0
 30
0.0
  0
ENDBLK
  5
2F7
100
AcDbEntity
  8
0
100
AcDbBlockEnd
  0
BLOCK
  5
2F8
100
AcDbEntity
  8
0
100
AcDbBlockBegin
  2
FROM3D_00025
 70
    64
 10
0.0
 20
0.0
 30
0.0
  3
FROM3D_00025
  0
INSERT
  5
2F9
100
AcDbEntity
  8
0
100
AcDbBlockReference
  2
FROM3D_00026
 10
342.33456528
 20
-444.68319015
 30
0.0
  0
ENDBLK
  5
2FA
100
AcDbEntity
  8
0
100
AcDbBlockEnd
  0
BLOCK
  5
2FB
100
AcDbEntity
  8
0
100
AcDbBlockBegin
  2
FROM3D_00026
 70
    64
 10
342.33456528
 20
-444.68319015
 30
0.0
  3
FROM3D_00026
  0
ELLIPSE
  5
2FC
100
AcDbEntity
  8
0
100
AcDbEllipse
 10
312.32035700
 20
-444.65274153
 30
0.0
 11
20.48695710
 21
-21.95715742
 31
0.0
 40
0.99898368
 41
5.53291898
 42
0.81951560
  0
POLYLINE
  5
2FD
100
AcDbEntity
  8
0
100
AcDb2dPolyline
 66
     1
  0
VERTEX
  5
2FE
100
AcDbEntity
  8
0
100
AcDbVertex
100
AcDb2dVertex
 10
312.35080347
 20
-474.66906167
 30
0.0
  0
VERTEX
  5
2FF
100
AcDbEntity
  8
0
100
AcDbVertex
100
AcDb2dVertex
 10
-113.58643907
 20
-474.66906167
 30
0.0
  0
SEQEND
  5
300
100
AcDbEntity
  8
0
  0
ELLIPSE
  5
301
100
AcDbEntity
  8
0
100
AcDbEllipse
 10
-113.55599259
 20
-444.65274153
 30
0.0
 11
-20.48695710
 21
-21.95715742
 31
0.0
 40
0.99898368
 41
5.46366971
 42
0.75026633
  0
LINE
  5
302
100
AcDbEntity
  8
0
100
AcDbLine
 10
-143.57020088
 20
-280.63985189
 30
0.0
 11
-143.57020088
 21
-444.68319015
 31
0.0
  0
ELLIPSE
  5
303
100
AcDbEntity
  8
0
100
AcDbEllipse
 10
-113.55599259
 20
-280.67030021
 30
0.0
 11
20.48706035
 21
-21.95706067
 31
0.0
 40
0.99898369
 41
2.39132161
 42
3.96110354
  0
LINE
  5
304
100
AcDbEntity
  8
0
100
AcDbLine
 10
312.35080318
 20
-250.65398039
 30
0.0
 11
-113.58643878
 21
-250.65398039
 31
0.0
  0
ELLIPSE
  5
305
100
AcDbEntity
  8
0
100
AcDbEllipse
 10
312.32035700
 20
-280.67030021
 30
0.0
 11
-20.48706035
 21
-21.95706067
 31
0.0
 40
0.99898369
 41
2.32208176
 42
3.89186370
  0
POLYLINE
  5
306
100
AcDbEntity
  8
0
100
AcDb2dPolyline
 66
     1
  0
VERTEX
  5
307
100
AcDbEntity
  8
0
100
AcDbVertex
100
AcDb2dVertex
 10
342.33456528
 20
-280.63985189
 30
0.0
  0
VERTEX
  5
308
100
AcDbEntity
  8
0
100
AcDbVertex
100
AcDb2dVertex
 10
342.33456528
 20
-444.68319015
 30
0.0
  0
VERTEX
  5
309
100
AcDbEntity
  8
0
100
AcDbVertex
100
AcDb2dVertex
 10
337.61471716
 20
-439.62463275
 30
0.0
  0
SEQEND
  5
30A
100
AcDbEntity
  8
0
  0
LINE
  5
30B
100
AcDbEntity
  8
0
100
AcDbLine
 10
307.63095534
 20
-469.61050427
 30
0.0
 11
312.35080347
 21
-474.66906167
 31
0.0
  0
LINE
  5
30C
100
AcDbEntity
  8
0
100
AcDbLine
 10
-113.58643907
 20
-474.66906167
 30
0.0
 11
-108.86659094
 21
-469.61050427
 31
0.0
  0
LINE
  5
30D
100
AcDbEntity
  8
0
100
AcDbLine
 10
-108.86659065
 20
-255.71249000
 30
0.0
 11
-113.58643878
 21
-250.65398039
 31
0.0
  0
LINE
  5
30E
100
AcDbEntity
  8
0
100
AcDbLine
 10
-143.57020088
 20
-280.63985189
 30
0.0
 11
-138.85035275
 21
-285.69836150
 31
0.0
  0
LINE
  5
30F
100
AcDbEntity
  8
0
100
AcDbLine
 10
-138.85035275
 20
-439.62463275
 30
0.0
 11
-143.57020088
 21
-444.68319015
 31
0.0
  0
LINE
  5
310
100
AcDbEntity
  8
0
100
AcDbLine
 10
312.35080318
 20
-250.65398039
 30
0.0
 11
307.63095506
 21
-255.71249000
 31
0.0
  0
LINE
  5
311
100
AcDbEntity
  8
0
100
AcDbLine
 10
337.61471716
 20
-285.69836150
 30
0.0
 11
342.33456528
 21
-280.63985189
 31
0.0
  0
LINE
  5
312
100
AcDbEntity
  8
0
100
AcDbLine
 10
-154.11780254
 20
-240.16147828
 30
0.0
 11
-154.11780254
 21
-485.16147828
 31
0.0
  0
LINE
  5
313
100
AcDbEntity
  8
0
100
AcDbLine
 10
352.88216694
 20
-485.16147828
 30
0.0
 11
-154.11780254
 21
-485.16147828
 31
0.0
  0
LINE
  5
314
100
AcDbEntity
  8
0
100
AcDbLine
 10
352.88216694
 20
-485.16147828
 30
0.0
 11
352.88216694
 21
-240.16147828
 31
0.0
  0
LINE
  5
315
100
AcDbEntity
  8
0
100
AcDbLine
 10
-154.11780254
 20
-240.16147828
 30
0.0
 11
352.88216694
 21
-240.16147828
 31
0.0
  0
ENDBLK
  5
316
100
AcDbEntity
  8
0
100
AcDbBlockEnd
  0
BLOCK
  5
317
100
AcDbEntity
  8
0
100
AcDbBlockBegin
  2
FROM3D_00027
 70
    64
 10
0.0
 20
0.0
 30
0.0
  3
FROM3D_00027
  0
INSERT
  5
318
100
AcDbEntity
  8
0
100
AcDbBlockReference
  2
FROM3D_00028
 10
132.88218220
 20
-485.16147828
 30
0.0
  0
ENDBLK
  5
319
100
AcDbEntity
  8
0
100
AcDbBlockEnd
  0
BLOCK
  5
31A
100
AcDbEntity
  8
0
100
AcDbBlockBegin
  2
FROM3D_00028
 70
    64
 10
132.88218220
 20
-485.16147828
 30
0.0
  3
FROM3D_00028
  0
LINE
  5
31B
100
AcDbEntity
  8
0
100
AcDbLine
 10
132.88218220
 20
-485.16147828
 30
0.0
 11
132.88218220
 21
-508.16147828
 31
0.0
  0
LINE
  5
31C
100
AcDbEntity
  8
0
100
AcDbLine
 10
1.88218220
 20
-508.16147828
 30
0.0
 11
132.88218220
 21
-508.16147828
 31
0.0
  0
LINE
  5
31D
100
AcDbEntity
  8
0
100
AcDbLine
 10
1.88218220
 20
-485.16147828
 30
0.0
 11
1.88218220
 21
-508.16147828
 31
0.0
  0
ENDBLK
  5
31E
100
AcDbEntity
  8
0
100
AcDbBlockEnd
  0
BLOCK
  5
31F
100
AcDbEntity
  8
0
100
AcDbBlockBegin
  2
FROM3D_00029
 70
    64
 10
0.0
 20
0.0
 30
0.0
  3
FROM3D_00029
  0
INSERT
  5
320
100
AcDbEntity
  8
0
100
AcDbBlockReference
  2
FROM3D_00030
 10
-108.86659065
 20
-255.71249000
 30
0.0
  0
ENDBLK
  5
321
100
AcDbEntity
  8
0
100
AcDbBlockEnd
  0
BLOCK
  5
322
100
AcDbEntity
  8
0
100
AcDbBlockBegin
  2
FROM3D_00030
 70
    64
 10
-108.86659065
 20
-255.71249000
 30
0.0
  3
FROM3D_00030
  0
POLYLINE
  5
323
100
AcDbEntity
  8
LE_ALL
100
AcDb2dPolyline
  6
PHANTOM
 62
     1
 66
     1
 70
     1
  0
VERTEX
  5
324
100
AcDbEntity
  8
LE_ALL
100
AcDbVertex
100
AcDb2dVertex
 10
-108.86659065
 20
-255.71249000
 30
0.0
  0
VERTEX
  5
325
100
AcDbEntity
  8
LE_ALL
100
AcDbVertex
100
AcDb2dVertex
 10
307.63095506
 20
-255.71249000
 30
0.0
  0
VERTEX
  5
326
100
AcDbEntity
  8
LE_ALL
100
AcDbVertex
100
AcDb2dVertex
 10
304.76564861
 20
-258.78338970
 30
0.0
  0
VERTEX
  5
327
100
AcDbEntity
  8
LE_ALL
100
AcDbVertex
100
AcDb2dVertex
 10
283.12938796
 20
-259.48788247
 30
0.0
  0
VERTEX
  5
328
100
AcDbEntity
  8
LE_ALL
100
AcDbVertex
100
AcDb2dVertex
 10
99.38218220
 20
-259.70381930
 30
0.0
  0
VERTEX
  5
329
100
AcDbEntity
  8
LE_ALL
100
AcDbVertex
100
AcDb2dVertex
 10
-84.36502356
 20
-259.48788247
 30
0.0
  0
VERTEX
  5
32A
100
AcDbEntity
  8
LE_ALL
100
AcDbVertex
100
AcDb2dVertex
 10
-106.00128421
 20
-258.78338970
 30
0.0
  0
SEQEND
  5
32B
100
AcDbEntity
  8
LE_ALL
  0
ELLIPSE
  5
32C
100
AcDbEntity
  8
LE_ALL
100
AcDbEllipse
  6
PHANTOM
 62
     1
 10
-108.83614447
 20
-285.72880982
 30
0.0
 11
20.48706035
 21
-21.95706067
 31
0.0
 40
0.99898369
 41
2.39132161
 42
3.96110354
  0
LINE
  5
32D
100
AcDbEntity
  8
LE_ALL
100
AcDbLine
  6
PHANTOM
 62
     1
 10
-138.85035275
 20
-285.69836150
 30
0.0
 11
-135.98708265
 21
-288.76707874
 31
0.0
  0
ELLIPSE
  5
32E
100
AcDbEntity
  8
LE_ALL
100
AcDbEllipse
  6
PHANTOM
 62
     1
 10
-106.00128421
 20
-288.76707874
 30
0.0
 11
21.93474543
 21
20.46623910
 31
0.0
 40
0.99898369
 41
0.82052528
 42
2.39030722
  0
ELLIPSE
  5
32F
100
AcDbEntity
  8
LE_ALL
100
AcDbEllipse
  6
PHANTOM
 62
     1
 10
-106.00128421
 20
-288.76707874
 30
0.0
 11
-0.97630496
 21
-29.98410960
 31
0.0
 40
0.70228185
 41
3.18792369
 42
4.73525182
  0
LINE
  5
330
100
AcDbEntity
  8
LE_ALL
100
AcDbLine
  6
PHANTOM
 62
     1
 10
-127.07539626
 20
-356.66147828
 30
0.0
 11
-127.07539626
 21
-288.76707874
 31
0.0
  0
LINE
  5
331
100
AcDbEntity
  8
LE_ALL
100
AcDbLine
  6
PHANTOM
 62
     1
 10
-135.81132618
 20
-356.66147828
 30
0.0
 11
-135.81132618
 21
-368.66147828
 31
0.0
  0
LINE
  5
332
100
AcDbEntity
  8
LE_ALL
100
AcDbLine
  6
PHANTOM
 62
     1
 10
-127.07539626
 20
-436.55588652
 30
0.0
 11
-127.07539626
 21
-368.66147828
 31
0.0
  0
ELLIPSE
  5
333
100
AcDbEntity
  8
LE_ALL
100
AcDbEllipse
  6
PHANTOM
 62
     1
 10
-106.00128421
 20
-436.55588652
 30
0.0
 11
0.97631417
 21
-29.98410930
 31
0.0
 40
0.70228185
 41
4.68952593
 42
6.23685384
  0
LINE
  5
334
100
AcDbEntity
  8
LE_ALL
100
AcDbLine
  6
PHANTOM
 62
     1
 10
-108.86659094
 20
-469.61050427
 30
0.0
 11
-106.00128421
 21
-466.53957526
 31
0.0
  0
ELLIPSE
  5
335
100
AcDbEntity
  8
LE_ALL
100
AcDbEllipse
  6
PHANTOM
 62
     1
 10
-108.83614447
 20
-439.59418414
 30
0.0
 11
-20.48695710
 21
-21.95715742
 31
0.0
 40
0.99898368
 41
5.46366971
 42
0.75026633
  0
LINE
  5
336
100
AcDbEntity
  8
LE_ALL
100
AcDbLine
  6
PHANTOM
 62
     1
 10
-138.85035275
 20
-439.62463275
 30
0.0
 11
-138.85035275
 21
-285.69836150
 31
0.0
  0
LINE
  5
337
100
AcDbEntity
  8
LE_ALL
100
AcDbLine
  6
PHANTOM
 62
     1
 10
-135.98708265
 20
-436.55588652
 30
0.0
 11
-138.85035275
 21
-439.62463275
 31
0.0
  0
LINE
  5
338
100
AcDbEntity
  8
LE_ALL
100
AcDbLine
  6
PHANTOM
 62
     1
 10
-135.98708265
 20
-288.76707874
 30
0.0
 11
-135.98708265
 21
-436.55588652
 31
0.0
  0
LINE
  5
339
100
AcDbEntity
  8
LE_ALL
100
AcDbLine
  6
PHANTOM
 62
     1
 10
-127.07539626
 20
-288.76707874
 30
0.0
 11
-135.98708265
 21
-288.76707874
 31
0.0
  0
POLYLINE
  5
33A
100
AcDbEntity
  8
LE_ALL
100
AcDb2dPolyline
  6
PHANTOM
 62
     1
 66
     1
  0
VERTEX
  5
33B
100
AcDbEntity
  8
LE_ALL
100
AcDbVertex
100
AcDb2dVertex
 10
-127.07539626
 20
-288.76707874
 30
0.0
  0
VERTEX
  5
33C
100
AcDbEntity
  8
LE_ALL
100
AcDbVertex
100
AcDb2dVertex
 10
-105.43913562
 20
-289.47157152
 30
0.0
  0
VERTEX
  5
33D
100
AcDbEntity
  8
LE_ALL
100
AcDbVertex
100
AcDb2dVertex
 10
-105.43913562
 20
-356.66147828
 30
0.0
  0
SEQEND
  5
33E
100
AcDbEntity
  8
LE_ALL
  0
LINE
  5
33F
100
AcDbEntity
  8
LE_ALL
100
AcDbLine
  6
PHANTOM
 62
     1
 10
-112.20854802
 20
-356.66147828
 30
0.0
 11
-112.20854802
 21
-368.66147828
 31
0.0
  0
POLYLINE
  5
340
100
AcDbEntity
  8
LE_ALL
100
AcDb2dPolyline
  6
PHANTOM
 62
     1
 66
     1
  0
VERTEX
  5
341
100
AcDbEntity
  8
LE_ALL
100
AcDbVertex
100
AcDb2dVertex
 10
-105.43913562
 20
-368.66147828
 30
0.0
  0
VERTEX
  5
342
100
AcDbEntity
  8
LE_ALL
100
AcDbVertex
100
AcDb2dVertex
 10
-105.43913562
 20
-435.85138709
 30
0.0
  0
SEQEND
  5
343
100
AcDbEntity
  8
LE_ALL
  0
ELLIPSE
  5
344
100
AcDbEntity
  8
LE_ALL
100
AcDbEllipse
  6
PHANTOM
 62
     1
 10
-84.36502356
 20
-435.85138709
 30
0.0
 11
0.97631417
 21
-29.98410930
 31
0.0
 40
0.70228185
 41
4.68952593
 42
6.23685384
  0
POLYLINE
  5
345
100
AcDbEntity
  8
LE_ALL
100
AcDb2dPolyline
  6
PHANTOM
 62
     1
 66
     1
  0
VERTEX
  5
346
100
AcDbEntity
  8
LE_ALL
100
AcDbVertex
100
AcDb2dVertex
 10
-84.36502356
 20
-465.83507583
 30
0.0
  0
VERTEX
  5
347
100
AcDbEntity
  8
LE_ALL
100
AcDbVertex
100
AcDb2dVertex
 10
99.38218220
 20
-465.61913696
 30
0.0
  0
VERTEX
  5
348
100
AcDbEntity
  8
LE_ALL
100
AcDbVertex
100
AcDb2dVertex
 10
283.12938796
 20
-465.83507583
 30
0.0
  0
VERTEX
  5
349
100
AcDbEntity
  8
LE_ALL
100
AcDbVertex
100
AcDb2dVertex
 10
304.76564861
 20
-466.53957526
 30
0.0
  0
VERTEX
  5
34A
100
AcDbEntity
  8
LE_ALL
100
AcDbVertex
100
AcDb2dVertex
 10
307.63095534
 20
-469.61050427
 30
0.0
  0
VERTEX
  5
34B
100
AcDbEntity
  8
LE_ALL
100
AcDbVertex
100
AcDb2dVertex
 10
-108.86659094
 20
-469.61050427
 30
0.0
  0
SEQEND
  5
34C
100
AcDbEntity
  8
LE_ALL
  0
ELLIPSE
  5
34D
100
AcDbEntity
  8
LE_ALL
100
AcDbEllipse
  6
PHANTOM
 62
     1
 10
307.60050887
 20
-439.59418414
 30
0.0
 11
20.48695710
 21
-21.95715742
 31
0.0
 40
0.99898368
 41
5.53291898
 42
0.81951560
  0
LINE
  5
34E
100
AcDbEntity
  8
LE_ALL
100
AcDbLine
  6
PHANTOM
 62
     1
 10
337.61471716
 20
-439.62463275
 30
0.0
 11
334.75144705
 21
-436.55588652
 31
0.0
  0
ELLIPSE
  5
34F
100
AcDbEntity
  8
LE_ALL
100
AcDbEllipse
  6
PHANTOM
 62
     1
 10
304.76564861
 20
-436.55588652
 30
0.0
 11
21.93484187
 21
20.46613575
 31
0.0
 40
0.99898368
 41
3.96212265
 42
5.53190458
  0
ELLIPSE
  5
350
100
AcDbEntity
  8
LE_ALL
100
AcDbEllipse
  6
PHANTOM
 62
     1
 10
304.76564861
 20
-436.55588652
 30
0.0
 11
-0.97631417
 21
-29.98410930
 31
0.0
 40
0.70228185
 41
0.04633147
 42
1.59365938
  0
LINE
  5
351
100
AcDbEntity
  8
LE_ALL
100
AcDbLine
  6
PHANTOM
 62
     1
 10
325.83976067
 20
-368.66147828
 30
0.0
 11
325.83976067
 21
-436.55588652
 31
0.0
  0
LINE
  5
352
100
AcDbEntity
  8
LE_ALL
100
AcDbLine
  6
PHANTOM
 62
     1
 10
334.57569059
 20
-368.66147828
 30
0.0
 11
334.57569059
 21
-356.66147828
 31
0.0
  0
LINE
  5
353
100
AcDbEntity
  8
LE_ALL
100
AcDbLine
  6
PHANTOM
 62
     1
 10
325.83976067
 20
-288.76707874
 30
0.0
 11
325.83976067
 21
-356.66147828
 31
0.0
  0
POLYLINE
  5
354
100
AcDbEntity
  8
LE_ALL
100
AcDb2dPolyline
  6
PHANTOM
 62
     1
 66
     1
  0
VERTEX
  5
355
100
AcDbEntity
  8
LE_ALL
100
AcDbVertex
100
AcDb2dVertex
 10
325.83976067
 20
-288.76707874
 30
0.0
  0
VERTEX
  5
356
100
AcDbEntity
  8
LE_ALL
100
AcDbVertex
100
AcDb2dVertex
 10
334.75144705
 20
-288.76707874
 30
0.0
  0
VERTEX
  5
357
100
AcDbEntity
  8
LE_ALL
100
AcDbVertex
100
AcDb2dVertex
 10
337.61471716
 20
-285.69836150
 30
0.0
  0
VERTEX
  5
358
100
AcDbEntity
  8
LE_ALL
100
AcDbVertex
100
AcDb2dVertex
 10
337.61471716
 20
-439.62463275
 30
0.0
  0
SEQEND
  5
359
100
AcDbEntity
  8
LE_ALL
  0
ELLIPSE
  5
35A
100
AcDbEntity
  8
LE_ALL
100
AcDbEllipse
  6
PHANTOM
 62
     1
 10
307.60050887
 20
-285.72880982
 30
0.0
 11
-20.48706035
 21
-21.95706067
 31
0.0
 40
0.99898369
 41
2.32208176
 42
3.89186370
  0
LINE
  5
35B
100
AcDbEntity
  8
LE_ALL
100
AcDbLine
  6
PHANTOM
 62
     1
 10
334.75144705
 20
-436.55588652
 30
0.0
 11
334.75144705
 21
-288.76707874
 31
0.0
  0
LINE
  5
35C
100
AcDbEntity
  8
LE_ALL
100
AcDbLine
  6
PHANTOM
 62
     1
 10
325.83976067
 20
-436.55588652
 30
0.0
 11
334.75144705
 21
-436.55588652
 31
0.0
  0
POLYLINE
  5
35D
100
AcDbEntity
  8
LE_ALL
100
AcDb2dPolyline
  6
PHANTOM
 62
     1
 66
     1
  0
VERTEX
  5
35E
100
AcDbEntity
  8
LE_ALL
100
AcDbVertex
100
AcDb2dVertex
 10
325.83976067
 20
-436.55588652
 30
0.0
  0
VERTEX
  5
35F
100
AcDbEntity
  8
LE_ALL
100
AcDbVertex
100
AcDb2dVertex
 10
304.20350002
 20
-435.85138709
 30
0.0
  0
VERTEX
  5
360
100
AcDbEntity
  8
LE_ALL
100
AcDbVertex
100
AcDb2dVertex
 10
304.20350002
 20
-368.66147828
 30
0.0
  0
SEQEND
  5
361
100
AcDbEntity
  8
LE_ALL
  0
LINE
  5
362
100
AcDbEntity
  8
LE_ALL
100
AcDbLine
  6
PHANTOM
 62
     1
 10
310.97291243
 20
-368.66147828
 30
0.0
 11
310.97291243
 21
-356.66147828
 31
0.0
  0
POLYLINE
  5
363
100
AcDbEntity
  8
LE_ALL
100
AcDb2dPolyline
  6
PHANTOM
 62
     1
 66
     1
  0
VERTEX
  5
364
100
AcDbEntity
  8
LE_ALL
100
AcDbVertex
100
AcDb2dVertex
 10
304.20350002
 20
-356.66147828
 30
0.0
  0
VERTEX
  5
365
100
AcDbEntity
  8
LE_ALL
100
AcDbVertex
100
AcDb2dVertex
 10
304.20350002
 20
-289.47157152
 30
0.0
  0
SEQEND
  5
366
100
AcDbEntity
  8
LE_ALL
  0
ELLIPSE
  5
367
100
AcDbEntity
  8
LE_ALL
100
AcDbEllipse
  6
PHANTOM
 62
     1
 10
283.12938796
 20
-289.47157152
 30
0.0
 11
0.97630496
 21
-29.98410960
 31
0.0
 40
0.70228185
 41
1.54793349
 42
3.09526162
  0
ELLIPSE
  5
368
100
AcDbEntity
  8
LE_ALL
100
AcDbEllipse
  6
PHANTOM
 62
     1
 10
283.12938796
 20
-289.47157152
 30
0.0
 11
0.03525550
 21
-29.99997928
 31
0.0
 40
0.03560075
 41
1.57075449
 42
3.10859453
  0
LINE
  5
369
100
AcDbEntity
  8
LE_ALL
100
AcDbLine
  6
PHANTOM
 62
     1
 10
284.19741107
 20
-289.47157152
 30
0.0
 11
284.19741107
 21
-356.66147828
 31
0.0
  0
LINE
  5
36A
100
AcDbEntity
  8
LE_ALL
100
AcDbLine
  6
PHANTOM
 62
     1
 10
311.49957156
 20
-356.66147828
 30
0.0
 11
283.75986748
 21
-356.66147828
 31
0.0
  0
POLYLINE
  5
36B
100
AcDbEntity
  8
LE_ALL
100
AcDb2dPolyline
  6
PHANTOM
 62
     1
 66
     1
  0
VERTEX
  5
36C
100
AcDbEntity
  8
LE_ALL
100
AcDbVertex
100
AcDb2dVertex
 10
311.49957156
 20
-356.66147828
 30
0.0
  0
VERTEX
  5
36D
100
AcDbEntity
  8
LE_ALL
100
AcDbVertex
100
AcDb2dVertex
 10
311.49957156
 20
-368.66147828
 30
0.0
  0
VERTEX
  5
36E
100
AcDbEntity
  8
LE_ALL
100
AcDbVertex
100
AcDb2dVertex
 10
333.43085484
 20
-368.66147828
 30
0.0
  0
VERTEX
  5
36F
100
AcDbEntity
  8
LE_ALL
100
AcDbVertex
100
AcDb2dVertex
 10
333.43085484
 20
-356.66147828
 30
0.0
  0
SEQEND
  5
370
100
AcDbEntity
  8
LE_ALL
  0
POLYLINE
  5
371
100
AcDbEntity
  8
LE_ALL
100
AcDb2dPolyline
  6
PHANTOM
 62
     1
 66
     1
  0
VERTEX
  5
372
100
AcDbEntity
  8
LE_ALL
100
AcDbVertex
100
AcDb2dVertex
 10
334.57569059
 20
-356.66147828
 30
0.0
  0
VERTEX
  5
373
100
AcDbEntity
  8
LE_ALL
100
AcDbVertex
100
AcDb2dVertex
 10
333.43085484
 20
-356.66147828
 30
0.0
  0
VERTEX
  5
374
100
AcDbEntity
  8
LE_ALL
100
AcDbVertex
100
AcDb2dVertex
 10
311.49957156
 20
-356.66147828
 30
0.0
  0
SEQEND
  5
375
100
AcDbEntity
  8
LE_ALL
  0
LINE
  5
376
100
AcDbEntity
  8
LE_ALL
100
AcDbLine
  6
PHANTOM
 62
     1
 10
334.57569059
 20
-368.66147828
 30
0.0
 11
333.43085484
 21
-368.66147828
 31
0.0
  0
LINE
  5
377
100
AcDbEntity
  8
LE_ALL
100
AcDbLine
  6
PHANTOM
 62
     1
 10
311.49957156
 20
-368.66147828
 30
0.0
 11
283.75986748
 21
-368.66147828
 31
0.0
  0
LINE
  5
378
100
AcDbEntity
  8
LE_ALL
100
AcDbLine
  6
PHANTOM
 62
     1
 10
283.75986748
 20
-356.66147828
 30
0.0
 11
283.75986748
 21
-368.66147828
 31
0.0
  0
POLYLINE
  5
379
100
AcDbEntity
  8
LE_ALL
100
AcDb2dPolyline
  6
PHANTOM
 62
     1
 66
     1
  0
VERTEX
  5
37A
100
AcDbEntity
  8
LE_ALL
100
AcDbVertex
100
AcDb2dVertex
 10
284.19741107
 20
-368.66147828
 30
0.0
  0
VERTEX
  5
37B
100
AcDbEntity
  8
LE_ALL
100
AcDbVertex
100
AcDb2dVertex
 10
284.19741107
 20
-435.85138709
 30
0.0
  0
VERTEX
  5
37C
100
AcDbEntity
  8
LE_ALL
100
AcDbVertex
100
AcDb2dVertex
 10
100.45020531
 20
-435.63544822
 30
0.0
  0
VERTEX
  5
37D
100
AcDbEntity
  8
LE_ALL
100
AcDbVertex
100
AcDb2dVertex
 10
100.45020531
 20
-289.68750834
 30
0.0
  0
VERTEX
  5
37E
100
AcDbEntity
  8
LE_ALL
100
AcDbVertex
100
AcDb2dVertex
 10
284.19741107
 20
-289.47157152
 30
0.0
  0
VERTEX
  5
37F
100
AcDbEntity
  8
LE_ALL
100
AcDbVertex
100
AcDb2dVertex
 10
304.20350002
 20
-289.47157152
 30
0.0
  0
VERTEX
  5
380
100
AcDbEntity
  8
LE_ALL
100
AcDbVertex
100
AcDb2dVertex
 10
325.83976067
 20
-288.76707874
 30
0.0
  0
SEQEND
  5
381
100
AcDbEntity
  8
LE_ALL
  0
ELLIPSE
  5
382
100
AcDbEntity
  8
LE_ALL
100
AcDbEllipse
  6
PHANTOM
 62
     1
 10
304.76564861
 20
-288.76707874
 30
0.0
 11
0.97630496
 21
-29.98410960
 31
0.0
 40
0.70228185
 41
1.54793349
 42
3.09526162
  0
ELLIPSE
  5
383
100
AcDbEntity
  8
LE_ALL
100
AcDbEllipse
  6
PHANTOM
 62
     1
 10
304.76564861
 20
-288.76707874
 30
0.0
 11
21.93474544
 21
-20.46623910
 31
0.0
 40
0.99898369
 41
0.75128544
 42
2.32106737
  0
LINE
  5
384
100
AcDbEntity
  8
LE_ALL
100
AcDbLine
  6
PHANTOM
 62
     1
 10
98.31415910
 20
-289.68750834
 30
0.0
 11
100.45020531
 21
-289.68750834
 31
0.0
  0
POLYLINE
  5
385
100
AcDbEntity
  8
LE_ALL
100
AcDb2dPolyline
  6
PHANTOM
 62
     1
 66
     1
  0
VERTEX
  5
386
100
AcDbEntity
  8
LE_ALL
100
AcDbVertex
100
AcDb2dVertex
 10
98.31415910
 20
-289.68750834
 30
0.0
  0
VERTEX
  5
387
100
AcDbEntity
  8
LE_ALL
100
AcDbVertex
100
AcDb2dVertex
 10
98.31415910
 20
-435.63544822
 30
0.0
  0
VERTEX
  5
388
100
AcDbEntity
  8
LE_ALL
100
AcDbVertex
100
AcDb2dVertex
 10
100.45020531
 20
-435.63544822
 30
0.0
  0
SEQEND
  5
389
100
AcDbEntity
  8
LE_ALL
  0
ELLIPSE
  5
38A
100
AcDbEntity
  8
LE_ALL
100
AcDbEllipse
  6
PHANTOM
 62
     1
 10
99.38218220
 20
-435.63544822
 30
0.0
 11
-0.03525584
 21
-29.99997928
 31
0.0
 40
0.03560075
 41
0.03299843
 42
1.57083816
  0
ELLIPSE
  5
38B
100
AcDbEntity
  8
LE_ALL
100
AcDbEllipse
  6
PHANTOM
 62
     1
 10
99.38218220
 20
-435.63544822
 30
0.0
 11
0.03525584
 21
-29.99997928
 31
0.0
 40
0.03560075
 41
4.71234714
 42
6.25018688
  0
POLYLINE
  5
38C
100
AcDbEntity
  8
LE_ALL
100
AcDb2dPolyline
  6
PHANTOM
 62
     1
 66
     1
  0
VERTEX
  5
38D
100
AcDbEntity
  8
LE_ALL
100
AcDbVertex
100
AcDb2dVertex
 10
98.31415910
 20
-435.63544822
 30
0.0
  0
VERTEX
  5
38E
100
AcDbEntity
  8
LE_ALL
100
AcDbVertex
100
AcDb2dVertex
 10
-85.43304666
 20
-435.85138709
 30
0.0
  0
VERTEX
  5
38F
100
AcDbEntity
  8
LE_ALL
100
AcDbVertex
100
AcDb2dVertex
 10
-85.43304666
 20
-368.66147828
 30
0.0
  0
SEQEND
  5
390
100
AcDbEntity
  8
LE_ALL
  0
LINE
  5
391
100
AcDbEntity
  8
LE_ALL
100
AcDbLine
  6
PHANTOM
 62
     1
 10
-84.99550308
 20
-368.66147828
 30
0.0
 11
-84.99550308
 21
-356.66147828
 31
0.0
  0
POLYLINE
  5
392
100
AcDbEntity
  8
LE_ALL
100
AcDb2dPolyline
  6
PHANTOM
 62
     1
 66
     1
  0
VERTEX
  5
393
100
AcDbEntity
  8
LE_ALL
100
AcDbVertex
100
AcDb2dVertex
 10
-85.43304666
 20
-356.66147828
 30
0.0
  0
VERTEX
  5
394
100
AcDbEntity
  8
LE_ALL
100
AcDbVertex
100
AcDb2dVertex
 10
-85.43304666
 20
-289.47157152
 30
0.0
  0
VERTEX
  5
395
100
AcDbEntity
  8
LE_ALL
100
AcDbVertex
100
AcDb2dVertex
 10
98.31415910
 20
-289.68750834
 30
0.0
  0
SEQEND
  5
396
100
AcDbEntity
  8
LE_ALL
  0
ELLIPSE
  5
397
100
AcDbEntity
  8
LE_ALL
100
AcDbEllipse
  6
PHANTOM
 62
     1
 10
99.38218220
 20
-289.68750834
 30
0.0
 11
-0.03525550
 21
-29.99997928
 31
0.0
 40
0.03560075
 41
3.17459077
 42
4.71243082
  0
ELLIPSE
  5
398
100
AcDbEntity
  8
LE_ALL
100
AcDbEllipse
  6
PHANTOM
 62
     1
 10
99.38218220
 20
-289.68750834
 30
0.0
 11
0.03525550
 21
-29.99997928
 31
0.0
 40
0.03560075
 41
1.57075449
 42
3.10859453
  0
ELLIPSE
  5
399
100
AcDbEntity
  8
LE_ALL
100
AcDbEllipse
  6
PHANTOM
 62
     1
 10
-84.36502356
 20
-289.47157152
 30
0.0
 11
-0.03525550
 21
-29.99997928
 31
0.0
 40
0.03560075
 41
3.17459077
 42
4.71243082
  0
ELLIPSE
  5
39A
100
AcDbEntity
  8
LE_ALL
100
AcDbEllipse
  6
PHANTOM
 62
     1
 10
-84.36502356
 20
-289.47157152
 30
0.0
 11
-0.97630496
 21
-29.98410960
 31
0.0
 40
0.70228185
 41
3.18792369
 42
4.73525182
  0
LINE
  5
39B
100
AcDbEntity
  8
LE_ALL
100
AcDbLine
  6
PHANTOM
 62
     1
 10
-105.43913562
 20
-289.47157152
 30
0.0
 11
-85.43304666
 21
-289.47157152
 31
0.0
  0
LINE
  5
39C
100
AcDbEntity
  8
LE_ALL
100
AcDbLine
  6
PHANTOM
 62
     1
 10
-112.73520715
 20
-356.66147828
 30
0.0
 11
-84.99550308
 21
-356.66147828
 31
0.0
  0
LINE
  5
39D
100
AcDbEntity
  8
LE_ALL
100
AcDbLine
  6
PHANTOM
 62
     1
 10
-134.66649043
 20
-356.66147828
 30
0.0
 11
-112.73520715
 21
-356.66147828
 31
0.0
  0
LINE
  5
39E
100
AcDbEntity
  8
LE_ALL
100
AcDbLine
  6
PHANTOM
 62
     1
 10
-135.81132618
 20
-356.66147828
 30
0.0
 11
-134.66649043
 21
-356.66147828
 31
0.0
  0
LINE
  5
39F
100
AcDbEntity
  8
LE_ALL
100
AcDbLine
  6
PHANTOM
 62
     1
 10
-134.66649043
 20
-368.66147828
 30
0.0
 11
-134.66649043
 21
-356.66147828
 31
0.0
  0
LINE
  5
3A0
100
AcDbEntity
  8
LE_ALL
100
AcDbLine
  6
PHANTOM
 62
     1
 10
-135.81132618
 20
-368.66147828
 30
0.0
 11
-134.66649043
 21
-368.66147828
 31
0.0
  0
LINE
  5
3A1
100
AcDbEntity
  8
LE_ALL
100
AcDbLine
  6
PHANTOM
 62
     1
 10
-112.73520715
 20
-368.66147828
 30
0.0
 11
-134.66649043
 21
-368.66147828
 31
0.0
  0
POLYLINE
  5
3A2
100
AcDbEntity
  8
LE_ALL
100
AcDb2dPolyline
  6
PHANTOM
 62
     1
 66
     1
  0
VERTEX
  5
3A3
100
AcDbEntity
  8
LE_ALL
100
AcDbVertex
100
AcDb2dVertex
 10
-112.73520715
 20
-356.66147828
 30
0.0
  0
VERTEX
  5
3A4
100
AcDbEntity
  8
LE_ALL
100
AcDbVertex
100
AcDb2dVertex
 10
-112.73520715
 20
-368.66147828
 30
0.0
  0
VERTEX
  5
3A5
100
AcDbEntity
  8
LE_ALL
100
AcDbVertex
100
AcDb2dVertex
 10
-84.99550308
 20
-368.66147828
 30
0.0
  0
SEQEND
  5
3A6
100
AcDbEntity
  8
LE_ALL
  0
ELLIPSE
  5
3A7
100
AcDbEntity
  8
LE_ALL
100
AcDbEllipse
  6
PHANTOM
 62
     1
 10
-84.36502356
 20
-435.85138709
 30
0.0
 11
0.03525584
 21
-29.99997928
 31
0.0
 40
0.03560075
 41
4.71234714
 42
6.25018688
  0
LINE
  5
3A8
100
AcDbEntity
  8
LE_ALL
100
AcDbLine
  6
PHANTOM
 62
     1
 10
-106.00128421
 20
-466.53957526
 30
0.0
 11
-84.36502356
 21
-465.83507583
 31
0.0
  0
ELLIPSE
  5
3A9
100
AcDbEntity
  8
LE_ALL
100
AcDbEllipse
  6
PHANTOM
 62
     1
 10
-106.00128421
 20
-436.55588652
 30
0.0
 11
21.93484186
 21
-20.46613575
 31
0.0
 40
0.99898368
 41
3.89287338
 42
5.46265531
  0
LINE
  5
3AA
100
AcDbEntity
  8
LE_ALL
100
AcDbLine
  6
PHANTOM
 62
     1
 10
-127.07539626
 20
-436.55588652
 30
0.0
 11
-135.98708265
 21
-436.55588652
 31
0.0
  0
LINE
  5
3AB
100
AcDbEntity
  8
LE_ALL
100
AcDbLine
  6
PHANTOM
 62
     1
 10
-105.43913562
 20
-435.85138709
 30
0.0
 11
-127.07539626
 21
-436.55588652
 31
0.0
  0
LINE
  5
3AC
100
AcDbEntity
  8
LE_ALL
100
AcDbLine
  6
PHANTOM
 62
     1
 10
-105.43913562
 20
-435.85138709
 30
0.0
 11
-85.43304666
 21
-435.85138709
 31
0.0
  0
LINE
  5
3AD
100
AcDbEntity
  8
LE_ALL
100
AcDbLine
  6
PHANTOM
 62
     1
 10
284.19741107
 20
-435.85138709
 30
0.0
 11
304.20350002
 21
-435.85138709
 31
0.0
  0
ELLIPSE
  5
3AE
100
AcDbEntity
  8
LE_ALL
100
AcDbEllipse
  6
PHANTOM
 62
     1
 10
283.12938796
 20
-435.85138709
 30
0.0
 11
-0.97631417
 21
-29.98410930
 31
0.0
 40
0.70228185
 41
0.04633147
 42
1.59365938
  0
ELLIPSE
  5
3AF
100
AcDbEntity
  8
LE_ALL
100
AcDbEllipse
  6
PHANTOM
 62
     1
 10
283.12938796
 20
-435.85138709
 30
0.0
 11
-0.03525584
 21
-29.99997928
 31
0.0
 40
0.03560075
 41
0.03299843
 42
1.57083816
  0
LINE
  5
3B0
100
AcDbEntity
  8
LE_ALL
100
AcDbLine
  6
PHANTOM
 10
308.55940098
 20
-356.66147828
 30
0.0
 11
308.55940098
 21
-368.66147828
 31
0.0
  0
LINE
  5
3B1
100
AcDbEntity
  8
LE_ALL
100
AcDbLine
  6
PHANTOM
 62
     1
 10
311.51264953
 20
-356.66147828
 30
0.0
 11
311.51264953
 21
-368.66147828
 31
0.0
  0
LINE
  5
3B2
100
AcDbEntity
  8
LE_ALL
100
AcDbLine
  6
PHANTOM
 10
326.55940098
 20
-356.66147828
 30
0.0
 11
326.55940098
 21
-368.66147828
 31
0.0
  0
LINE
  5
3B3
100
AcDbEntity
  8
LE_ALL
100
AcDbLine
  6
PHANTOM
 10
-109.79503657
 20
-356.66147828
 30
0.0
 11
-109.79503657
 21
-368.66147828
 31
0.0
  0
LINE
  5
3B4
100
AcDbEntity
  8
LE_ALL
100
AcDbLine
  6
PHANTOM
 62
     1
 10
-112.74828513
 20
-368.66147828
 30
0.0
 11
-112.74828513
 21
-356.66147828
 31
0.0
  0
LINE
  5
3B5
100
AcDbEntity
  8
LE_ALL
100
AcDbLine
  6
PHANTOM
 10
-127.79503657
 20
-356.66147828
 30
0.0
 11
-127.79503657
 21
-368.66147828
 31
0.0
  0
ENDBLK
  5
3B6
100
AcDbEntity
  8
0
100
AcDbBlockEnd
  0
BLOCK
  5
3B7
100
AcDbEntity
  8
0
100
AcDbBlockBegin
  2
ANS3D05_00031
 70
    64
 10
0.0
 20
0.0
 30
0.0
  3
ANS3D05_00031
  0
INSERT
  5
3B8
100
AcDbEntity
  8
0
100
AcDbBlockReference
  2
FIG3D05_00032
 10
0.0
 20
0.0
 30
0.0
  0
ENDBLK
  5
3B9
100
AcDbEntity
  8
0
100
AcDbBlockEnd
  0
BLOCK
  5
3BA
100
AcDbEntity
  8
0
100
AcDbBlockBegin
  2
FIG3D05_00032
 70
    64
 10
0.0
 20
0.0
 30
0.0
  3
FIG3D05_00032
  0
INSERT
  5
3BB
100
AcDbEntity
  8
0
100
AcDbBlockReference
  2
FROM3D_00033
 10
0.0
 20
0.0
 30
0.0
  0
ENDBLK
  5
3BC
100
AcDbEntity
  8
0
100
AcDbBlockEnd
  0
BLOCK
  5
3BD
100
AcDbEntity
  8
0
100
AcDbBlockBegin
  2
FROM3D_00033
 70
    64
 10
0.0
 20
0.0
 30
0.0
  3
FROM3D_00033
  0
INSERT
  5
3BE
100
AcDbEntity
  8
0
100
AcDbBlockReference
  2
FROM3D_00034
 10
0.0
 20
0.0
 30
0.0
  0
INSERT
  5
3BF
100
AcDbEntity
  8
0
100
AcDbBlockReference
  2
FROM3D_00039
 10
0.0
 20
0.0
 30
0.0
  0
ENDBLK
  5
3C0
100
AcDbEntity
  8
0
100
AcDbBlockEnd
  0
BLOCK
  5
3C1
100
AcDbEntity
  8
0
100
AcDbBlockBegin
  2
FROM3D_00034
 70
    64
 10
0.0
 20
0.0
 30
0.0
  3
FROM3D_00034
  0
INSERT
  5
3C2
100
AcDbEntity
  8
0
100
AcDbBlockReference
  2
FROM3D_00035
 10
0.0
 20
0.0
 30
0.0
  0
INSERT
  5
3C3
100
AcDbEntity
  8
0
100
AcDbBlockReference
  2
FROM3D_00037
 10
0.0
 20
0.0
 30
0.0
  0
ENDBLK
  5
3C4
100
AcDbEntity
  8
0
100
AcDbBlockEnd
  0
BLOCK
  5
3C5
100
AcDbEntity
  8
0
100
AcDbBlockBegin
  2
FROM3D_00035
 70
    64
 10
0.0
 20
0.0
 30
0.0
  3
FROM3D_00035
  0
INSERT
  5
3C6
100
AcDbEntity
  8
0
100
AcDbBlockReference
  2
FROM3D_00036
 10
951.16351985
 20
-772.06153554
 30
0.0
  0
ENDBLK
  5
3C7
100
AcDbEntity
  8
0
100
AcDbBlockEnd
  0
BLOCK
  5
3C8
100
AcDbEntity
  8
0
100
AcDbBlockBegin
  2
FROM3D_00036
 70
    64
 10
951.16351985
 20
-772.06153554
 30
0.0
  3
FROM3D_00036
  0
ELLIPSE
  5
3C9
100
AcDbEntity
  8
0
100
AcDbEllipse
 10
923.66349942
 20
-767.56982568
 30
0.0
 11
30.00338737
 21
-0.00832730
 31
0.0
 40
0.37382410
 41
4.30211209
 42
5.87189401
  0
POLYLINE
  5
3CA
100
AcDbEntity
  8
0
100
AcDb2dPolyline
 66
     1
  0
VERTEX
  5
3CB
100
AcDbEntity
  8
0
100
AcDbVertex
100
AcDb2dVertex
 10
911.69339601
 20
-777.85168321
 30
0.0
  0
VERTEX
  5
3CC
100
AcDbEntity
  8
0
100
AcDbVertex
100
AcDb2dVertex
 10
521.26274538
 20
-714.25693635
 30
0.0
  0
SEQEND
  5
3CD
100
AcDbEntity
  8
0
  0
ELLIPSE
  5
3CE
100
AcDbEntity
  8
0
100
AcDbEllipse
 10
533.28866564
 20
-703.98417047
 30
0.0
 11
30.02569953
 21
0.00965989
 31
0.0
 40
0.37326872
 41
3.12493375
 42
4.30018363
  0
ELLIPSE
  5
3CF
100
AcDbEntity
  8
0
100
AcDbEllipse
 10
989.20995092
 20
-711.42374727
 30
0.0
 11
30.02569938
 21
0.00965970
 31
0.0
 40
0.37326872
 41
5.87199436
 42
0.01665885
  0
POLYLINE
  5
3D0
100
AcDbEntity
  8
0
100
AcDb2dPolyline
 66
     1
  0
VERTEX
  5
3D1
100
AcDbEntity
  8
0
100
AcDbVertex
100
AcDb2dVertex
 10
1016.73431284
 20
-715.89460658
 30
0.0
  0
VERTEX
  5
3D2
100
AcDbEntity
  8
0
100
AcDbVertex
100
AcDb2dVertex
 10
951.16351985
 20
-772.06153554
 30
0.0
  0
VERTEX
  5
3D3
100
AcDbEntity
  8
0
100
AcDbVertex
100
AcDb2dVertex
 10
947.46115417
 20
-539.61795247
 30
0.0
  0
SEQEND
  5
3D4
100
AcDbEntity
  8
0
  0
ELLIPSE
  5
3D5
100
AcDbEntity
  8
0
100
AcDbEllipse
 10
919.97500451
 20
-535.99708309
 30
0.0
 11
29.99619520
 21
0.47777995
 31
0.0
 40
0.33372541
 41
4.29605410
 42
5.86583603
  0
LINE
  5
3D6
100
AcDbEntity
  8
0
100
AcDbLine
 10
907.99003598
 20
-545.34567190
 30
0.0
 11
911.69339601
 21
-777.85168321
 31
0.0
  0
ELLIPSE
  5
3D7
100
AcDbEntity
  8
0
100
AcDbEllipse
 10
919.97500451
 20
-535.99708309
 30
0.0
 11
22.97365255
 21
19.29277814
 31
0.0
 40
0.02119831
 41
0.55439426
 42
2.10172217
  0
ELLIPSE
  5
3D8
100
AcDbEntity
  8
0
100
AcDbEllipse
 10
919.97500451
 20
-535.99708309
 30
0.0
 11
19.51640737
 21
-22.78398217
 31
0.0
 40
0.85029138
 41
0.81248208
 42
1.57364491
  0
LINE
  5
3D9
100
AcDbEntity
  8
0
100
AcDbLine
 10
947.46115417
 20
-539.61795247
 30
0.0
 11
1006.53474670
 21
-489.01642513
 31
0.0
  0
ELLIPSE
  5
3DA
100
AcDbEntity
  8
0
100
AcDbEllipse
 10
979.04859704
 20
-485.39555574
 30
0.0
 11
19.51640737
 21
-22.78398217
 31
0.0
 40
0.85029138
 41
0.81248208
 42
1.57364491
  0
LINE
  5
3DB
100
AcDbEntity
  8
0
100
AcDbLine
 10
998.36594819
 20
-468.73608809
 30
0.0
 11
978.50224977
 21
-485.75102549
 31
0.0
  0
LINE
  5
3DC
100
AcDbEntity
  8
0
100
AcDbLine
 10
974.43854928
 20
-514.07477020
 30
0.0
 11
979.23514465
 21
-509.96608066
 31
0.0
  0
ELLIPSE
  5
3DD
100
AcDbEntity
  8
0
100
AcDbEllipse
 10
947.11350483
 20
-512.75066269
 30
0.0
 11
19.51640737
 21
-22.78398217
 31
0.0
 40
0.85029138
 41
0.89430454
 42
1.57364491
  0
POLYLINE
  5
3DE
100
AcDbEntity
  8
0
100
AcDb2dPolyline
 66
     1
  0
VERTEX
  5
3DF
100
AcDbEntity
  8
0
100
AcDbVertex
100
AcDb2dVertex
 10
966.43085598
 20
-496.09119504
 30
0.0
  0
VERTEX
  5
3E0
100
AcDbEntity
  8
0
100
AcDbVertex
100
AcDb2dVertex
 10
939.29235566
 20
-519.33761543
 30
0.0
  0
VERTEX
  5
3E1
100
AcDbEntity
  8
0
100
AcDbVertex
100
AcDb2dVertex
 10
919.74131713
 20
-496.05642893
 30
0.0
  0
VERTEX
  5
3E2
100
AcDbEntity
  8
0
100
AcDbVertex
100
AcDb2dVertex
 10
946.59821756
 20
-473.05122265
 30
0.0
  0
VERTEX
  5
3E3
100
AcDbEntity
  8
0
100
AcDbVertex
100
AcDb2dVertex
 10
952.80332439
 20
-480.25981926
 30
0.0
  0
VERTEX
  5
3E4
100
AcDbEntity
  8
0
100
AcDbVertex
100
AcDb2dVertex
 10
957.59991975
 20
-476.15112972
 30
0.0
  0
SEQEND
  5
3E5
100
AcDbEntity
  8
0
  0
LINE
  5
3E6
100
AcDbEntity
  8
0
100
AcDbLine
 10
932.65538384
 20
-457.87075634
 30
0.0
 11
927.85878847
 21
-461.97944588
 31
0.0
  0
LINE
  5
3E7
100
AcDbEntity
  8
0
100
AcDbLine
 10
953.28608064
 20
-460.34918679
 30
0.0
 11
927.85878847
 21
-461.97944588
 31
0.0
  0
LINE
  5
3E8
100
AcDbEntity
  8
0
100
AcDbLine
 10
958.08267600
 20
-456.24049725
 30
0.0
 11
953.28608064
 21
-460.34918679
 31
0.0
  0
ELLIPSE
  5
3E9
100
AcDbEntity
  8
0
100
AcDbEllipse
 10
961.69396954
 20
-473.12103692
 30
0.0
 11
11.70990422
 21
-13.67045910
 31
0.0
 40
0.85029138
 41
0.81248187
 42
2.57316128
  0
LINE
  5
3EA
100
AcDbEntity
  8
0
100
AcDbLine
 10
979.23514465
 20
-509.96608066
 30
0.0
 11
978.18574365
 21
-475.29357309
 31
0.0
  0
LINE
  5
3EB
100
AcDbEntity
  8
0
100
AcDbLine
 10
973.38914828
 20
-479.40226263
 30
0.0
 11
978.18574365
 21
-475.29357309
 31
0.0
  0
LINE
  5
3EC
100
AcDbEntity
  8
0
100
AcDbLine
 10
974.43854928
 20
-514.07477020
 30
0.0
 11
973.38914828
 21
-479.40226263
 31
0.0
  0
ELLIPSE
  5
3ED
100
AcDbEntity
  8
0
100
AcDbEllipse
 10
956.89737417
 20
-477.22972645
 30
0.0
 11
11.70986631
 21
-13.67041486
 31
0.0
 40
0.85029138
 41
0.81247880
 42
2.57316635
  0
LINE
  5
3EE
100
AcDbEntity
  8
0
100
AcDbLine
 10
958.08267600
 20
-456.24049725
 30
0.0
 11
932.65538384
 21
-457.87075634
 31
0.0
  0
POLYLINE
  5
3EF
100
AcDbEntity
  8
0
100
AcDb2dPolyline
 66
     1
  0
VERTEX
  5
3F0
100
AcDbEntity
  8
0
100
AcDbVertex
100
AcDb2dVertex
 10
927.85878847
 20
-461.97944588
 30
0.0
  0
VERTEX
  5
3F1
100
AcDbEntity
  8
0
100
AcDbVertex
100
AcDb2dVertex
 10
928.25985795
 20
-462.05923209
 30
0.0
  0
VERTEX
  5
3F2
100
AcDbEntity
  8
0
100
AcDbVertex
100
AcDb2dVertex
 10
901.40295752
 20
-485.06443837
 30
0.0
  0
VERTEX
  5
3F3
100
AcDbEntity
  8
0
100
AcDbVertex
100
AcDb2dVertex
 10
733.05943301
 20
-451.48414005
 30
0.0
  0
VERTEX
  5
3F4
100
AcDbEntity
  8
0
100
AcDbVertex
100
AcDb2dVertex
 10
791.39720067
 20
-401.51290892
 30
0.0
  0
VERTEX
  5
3F5
100
AcDbEntity
  8
0
100
AcDbVertex
100
AcDb2dVertex
 10
959.91335292
 20
-434.94533698
 30
0.0
  0
VERTEX
  5
3F6
100
AcDbEntity
  8
0
100
AcDbVertex
100
AcDb2dVertex
 10
933.18958213
 20
-457.83650646
 30
0.0
  0
SEQEND
  5
3F7
100
AcDbEntity
  8
0
  0
ELLIPSE
  5
3F8
100
AcDbEntity
  8
0
100
AcDbEllipse
 10
958.93436139
 20
-462.59679520
 30
0.0
 11
19.51640737
 21
-22.78398217
 31
0.0
 40
0.85029138
 41
1.57364491
 42
2.31689926
  0
POLYLINE
  5
3F9
100
AcDbEntity
  8
0
100
AcDb2dPolyline
 66
     1
  0
VERTEX
  5
3FA
100
AcDbEntity
  8
0
100
AcDbVertex
100
AcDb2dVertex
 10
964.98989488
 20
-457.29719580
 30
0.0
  0
VERTEX
  5
3FB
100
AcDbEntity
  8
0
100
AcDbVertex
100
AcDb2dVertex
 10
978.25171254
 20
-445.93732754
 30
0.0
  0
VERTEX
  5
3FC
100
AcDbEntity
  8
0
100
AcDbVertex
100
AcDb2dVertex
 10
998.36594819
 20
-468.73608809
 30
0.0
  0
SEQEND
  5
3FD
100
AcDbEntity
  8
0
  0
ELLIPSE
  5
3FE
100
AcDbEntity
  8
0
100
AcDbEllipse
 10
979.04859704
 20
-485.39555574
 30
0.0
 11
22.49627023
 21
19.84736319
 31
0.0
 40
0.01820044
 41
5.72882762
 42
6.28318531
  0
LINE
  5
3FF
100
AcDbEntity
  8
0
100
AcDbLine
 10
981.43063162
 20
-442.74943201
 30
0.0
 11
1001.54486727
 21
-465.54819255
 31
0.0
  0
ELLIPSE
  5
400
100
AcDbEntity
  8
0
100
AcDbEllipse
 10
958.93436139
 20
-462.59679520
 30
0.0
 11
22.49627023
 21
19.84736319
 31
0.0
 40
0.01820044
 41
5.72882762
 42
6.28318531
  0
ARC
  5
401
100
AcDbEntity
  8
0
100
AcDbCircle
 10
958.93436139
 20
-462.59679520
 30
0.0
 40
30.00000000
100
AcDbArc
 50
41.420390425
 51
78.778626818
  0
ELLIPSE
  5
402
100
AcDbEntity
  8
0
100
AcDbEllipse
 10
958.93436139
 20
-462.59679520
 30
0.0
 11
-5.83800797
 21
-29.42647894
 31
0.0
 40
0.35625248
 41
3.14159265
 42
3.56803058
  0
LINE
  5
403
100
AcDbEntity
  8
0
100
AcDbLine
 10
796.25621715
 20
-399.73788820
 30
0.0
 11
964.77236936
 21
-433.17031626
 31
0.0
  0
ELLIPSE
  5
404
100
AcDbEntity
  8
0
100
AcDbEllipse
 10
790.41820913
 20
-429.16436713
 30
0.0
 11
-5.83800797
 21
-29.42647894
 31
0.0
 40
0.35625248
 41
3.14159265
 42
3.56803058
  0
ELLIPSE
  5
405
100
AcDbEntity
  8
0
100
AcDbEllipse
 10
790.41820913
 20
-429.16436713
 30
0.0
 11
19.51640737
 21
-22.78398217
 31
0.0
 40
0.85029138
 41
2.31689926
 42
2.38811585
  0
POLYLINE
  5
406
100
AcDbEntity
  8
0
100
AcDb2dPolyline
 66
     1
  0
VERTEX
  5
407
100
AcDbEntity
  8
0
100
AcDbVertex
100
AcDb2dVertex
 10
789.43921759
 20
-401.19398560
 30
0.0
  0
VERTEX
  5
408
100
AcDbEntity
  8
0
100
AcDbVertex
100
AcDb2dVertex
 10
731.10144993
 20
-451.16521673
 30
0.0
  0
SEQEND
  5
409
100
AcDbEntity
  8
0
  0
ELLIPSE
  5
40A
100
AcDbEntity
  8
0
100
AcDbEllipse
 10
732.08044147
 20
-479.13559826
 30
0.0
 11
-3.76001007
 21
-29.76343939
 31
0.0
 40
0.38284826
 41
3.54199522
 42
5.07983495
  0
POLYLINE
  5
40B
100
AcDbEntity
  8
0
100
AcDb2dPolyline
 66
     1
  0
VERTEX
  5
40C
100
AcDbEntity
  8
0
100
AcDbVertex
100
AcDb2dVertex
 10
720.09547294
 20
-488.48418707
 30
0.0
  0
VERTEX
  5
40D
100
AcDbEntity
  8
0
100
AcDbVertex
100
AcDb2dVertex
 10
888.43899745
 20
-522.06448540
 30
0.0
  0
SEQEND
  5
40E
100
AcDbEntity
  8
0
  0
ELLIPSE
  5
40F
100
AcDbEntity
  8
0
100
AcDbEllipse
 10
900.42396598
 20
-512.71589658
 30
0.0
 11
22.97365255
 21
19.29277814
 31
0.0
 40
0.02119831
 41
0.55439426
 42
2.10172217
  0
ELLIPSE
  5
410
100
AcDbEntity
  8
0
100
AcDbEllipse
 10
900.42396598
 20
-512.71589658
 30
0.0
 11
19.51640737
 21
-22.78398217
 31
0.0
 40
0.85029138
 41
1.57364491
 42
2.31689926
  0
ELLIPSE
  5
411
100
AcDbEntity
  8
0
100
AcDbEllipse
 10
900.42396598
 20
-512.71589658
 30
0.0
 11
-5.86862726
 21
-29.42038773
 31
0.0
 40
0.35824972
 41
3.56840235
 42
5.10624209
  0
LINE
  5
412
100
AcDbEntity
  8
0
100
AcDbLine
 10
888.43899745
 20
-522.06448540
 30
0.0
 11
907.99003598
 21
-545.34567190
 31
0.0
  0
LINE
  5
413
100
AcDbEntity
  8
0
100
AcDbLine
 10
551.57931987
 20
-467.19557106
 30
0.0
 11
720.09547294
 21
-488.48418707
 31
0.0
  0
LINE
  5
414
100
AcDbEntity
  8
0
100
AcDbLine
 10
531.46508155
 20
-484.01593479
 30
0.0
 11
551.57931987
 21
-467.19557106
 31
0.0
  0
POLYLINE
  5
415
100
AcDbEntity
  8
0
100
AcDb2dPolyline
 66
     1
  0
VERTEX
  5
416
100
AcDbEntity
  8
0
100
AcDbVertex
100
AcDb2dVertex
 10
521.26274538
 20
-714.25693635
 30
0.0
  0
VERTEX
  5
417
100
AcDbEntity
  8
0
100
AcDbVertex
100
AcDb2dVertex
 10
531.46508155
 20
-484.01593479
 30
0.0
  0
SEQEND
  5
418
100
AcDbEntity
  8
0
  0
ELLIPSE
  5
419
100
AcDbEntity
  8
0
100
AcDbEllipse
 10
543.45005009
 20
-474.66734598
 30
0.0
 11
19.24500403
 21
-23.01368767
 31
0.0
 40
0.50644400
 41
3.14783215
 42
4.69516006
  0
LINE
  5
41A
100
AcDbEntity
  8
0
100
AcDbLine
 10
544.24693725
 20
-434.89455550
 30
0.0
 11
524.13269894
 21
-451.71491923
 31
0.0
  0
ELLIPSE
  5
41B
100
AcDbEntity
  8
0
100
AcDbEllipse
 10
563.56428840
 20
-457.84698225
 30
0.0
 11
19.24500403
 21
-23.01368767
 31
0.0
 40
0.50644400
 41
3.14783215
 42
4.69516006
  0
ELLIPSE
  5
41C
100
AcDbEntity
  8
0
100
AcDbEllipse
 10
563.56428840
 20
-457.84698225
 30
0.0
 11
-3.76001007
 21
-29.76343939
 31
0.0
 40
0.38284826
 41
3.54199522
 42
5.07983495
  0
LINE
  5
41D
100
AcDbEntity
  8
0
100
AcDbLine
 10
731.10144993
 20
-451.16521673
 30
0.0
 11
562.58529686
 21
-429.87660072
 31
0.0
  0
ELLIPSE
  5
41E
100
AcDbEntity
  8
0
100
AcDbEllipse
 10
732.08044147
 20
-479.13559826
 30
0.0
 11
19.51640737
 21
-22.78398217
 31
0.0
 40
0.85029138
 41
2.31689926
 42
2.38811585
  0
ELLIPSE
  5
41F
100
AcDbEntity
  8
0
100
AcDbEllipse
 10
732.08044147
 20
-479.13559826
 30
0.0
 11
-5.86862726
 21
-29.42038773
 31
0.0
 40
0.35824972
 41
3.56840235
 42
5.10624209
  0
ELLIPSE
  5
420
100
AcDbEntity
  8
0
100
AcDbEllipse
 10
563.56428840
 20
-457.84698225
 30
0.0
 11
19.51640737
 21
-22.78398217
 31
0.0
 40
0.85029138
 41
2.38811585
 42
3.13137019
  0
LINE
  5
421
100
AcDbEntity
  8
0
100
AcDbLine
 10
571.10383768
 20
-411.88934923
 30
0.0
 11
544.24693725
 21
-434.89455550
 31
0.0
  0
LINE
  5
422
100
AcDbEntity
  8
0
100
AcDbLine
 10
564.89873085
 20
-417.07652565
 30
0.0
 11
571.10383768
 21
-411.88934923
 31
0.0
  0
LINE
  5
423
100
AcDbEntity
  8
0
100
AcDbLine
 10
602.75733266
 20
-384.77545411
 30
0.0
 11
585.74686594
 21
-399.34635729
 31
0.0
  0
LINE
  5
424
100
AcDbEntity
  8
0
100
AcDbLine
 10
585.45637232
 20
-399.23309914
 30
0.0
 11
602.75733266
 21
-384.77545411
 31
0.0
  0
LINE
  5
425
100
AcDbEntity
  8
0
100
AcDbLine
 10
564.40398682
 20
-417.49010831
 30
0.0
 11
565.01240408
 21
-416.96894747
 31
0.0
  0
LINE
  5
426
100
AcDbEntity
  8
0
100
AcDbLine
 10
551.27119926
 20
-428.46849884
 30
0.0
 11
564.40398682
 21
-417.49010831
 31
0.0
  0
LINE
  5
427
100
AcDbEntity
  8
0
100
AcDbLine
 10
524.13269894
 20
-451.71491923
 30
0.0
 11
551.27119926
 21
-428.46849884
 31
0.0
  0
ELLIPSE
  5
428
100
AcDbEntity
  8
0
100
AcDbEllipse
 10
543.45005009
 20
-474.66734598
 30
0.0
 11
19.51640737
 21
-22.78398217
 31
0.0
 40
0.85029138
 41
3.13137019
 42
3.14159265
  0
ARC
  5
429
100
AcDbEntity
  8
0
100
AcDbCircle
 10
543.45005009
 20
-474.66734598
 30
0.0
 40
30.00000000
100
AcDbArc
 50
130.582849423
 51
177.462794816
  0
ELLIPSE
  5
42A
100
AcDbEntity
  8
0
100
AcDbEllipse
 10
543.45005009
 20
-474.66734598
 30
0.0
 11
29.97059060
 21
-1.32804339
 31
0.0
 40
0.35652812
 41
3.14159265
 42
4.31684253
  0
LINE
  5
42B
100
AcDbEntity
  8
0
100
AcDbLine
 10
513.47945949
 20
-473.33930259
 30
0.0
 11
503.26707230
 21
-703.80713045
 31
0.0
  0
LINE
  5
42C
100
AcDbEntity
  8
0
100
AcDbLine
 10
551.07214303
 20
-428.63694342
 30
0.0
 11
523.93364271
 21
-451.88336381
 31
0.0
  0
ELLIPSE
  5
42D
100
AcDbEntity
  8
0
100
AcDbEllipse
 10
570.58855041
 20
-451.42092558
 30
0.0
 11
19.51640737
 21
-22.78398217
 31
0.0
 40
0.85029138
 41
3.13137019
 42
3.14159265
  0
LINE
  5
42E
100
AcDbEntity
  8
0
100
AcDbLine
 10
543.53087199
 20
-435.09667977
 30
0.0
 11
544.31290696
 21
-409.51278313
 31
0.0
  0
ELLIPSE
  5
42F
100
AcDbEntity
  8
0
100
AcDbEllipse
 10
560.80468107
 20
-412.71272578
 30
0.0
 11
11.70986631
 21
-13.67041486
 31
0.0
 40
0.85029138
 41
3.14159265
 42
3.89252976
  0
ELLIPSE
  5
430
100
AcDbEntity
  8
0
100
AcDbEllipse
 10
560.80468107
 20
-412.71272578
 30
0.0
 11
11.70986631
 21
-13.67041486
 31
0.0
 40
0.85029138
 41
2.13184876
 42
3.14159265
  0
LINE
  5
431
100
AcDbEntity
  8
0
100
AcDbLine
 10
564.41597460
 20
-397.00862704
 30
0.0
 11
589.84326677
 21
-406.92226350
 31
0.0
  0
LINE
  5
432
100
AcDbEntity
  8
0
100
AcDbLine
 10
589.44219729
 20
-406.87139444
 30
0.0
 11
589.84326677
 21
-406.92226350
 31
0.0
  0
ELLIPSE
  5
433
100
AcDbEntity
  8
0
100
AcDbEllipse
 10
590.42118883
 20
-434.84177597
 30
0.0
 11
19.51640737
 21
-22.78398217
 31
0.0
 40
0.85029138
 41
2.38811585
 42
3.13137019
  0
LINE
  5
434
100
AcDbEntity
  8
0
100
AcDbLine
 10
562.58529686
 20
-429.87660072
 30
0.0
 11
589.44219729
 21
-406.87139444
 31
0.0
  0
LINE
  5
435
100
AcDbEntity
  8
0
100
AcDbLine
 10
589.84326677
 20
-406.92226350
 30
0.0
 11
594.63986213
 21
-402.81357396
 31
0.0
  0
POLYLINE
  5
436
100
AcDbEntity
  8
0
100
AcDb2dPolyline
 66
     1
  0
VERTEX
  5
437
100
AcDbEntity
  8
0
100
AcDbVertex
100
AcDb2dVertex
 10
594.32343241
 20
-402.69020380
 30
0.0
  0
VERTEX
  5
438
100
AcDbEntity
  8
0
100
AcDbVertex
100
AcDb2dVertex
 10
621.09569227
 20
-379.75749933
 30
0.0
  0
VERTEX
  5
439
100
AcDbEntity
  8
0
100
AcDbVertex
100
AcDb2dVertex
 10
789.43921759
 20
-401.19398560
 30
0.0
  0
SEQEND
  5
43A
100
AcDbEntity
  8
0
  0
ELLIPSE
  5
43B
100
AcDbEntity
  8
0
100
AcDbEllipse
 10
790.41820913
 20
-429.16436713
 30
0.0
 11
-3.78953269
 21
-29.75969492
 31
0.0
 40
0.38484550
 41
3.14159265
 42
3.54237599
  0
ARC
  5
43C
100
AcDbEntity
  8
0
100
AcDbCircle
 10
790.41820913
 20
-429.16436713
 30
0.0
 40
30.00000000
100
AcDbArc
 50
78.778626727
 51
82.743139038
  0
LINE
  5
43D
100
AcDbEntity
  8
0
100
AcDbLine
 10
625.86421649
 20
-377.96818594
 30
0.0
 11
794.20774185
 21
-399.40467221
 31
0.0
  0
ELLIPSE
  5
43E
100
AcDbEntity
  8
0
100
AcDbEllipse
 10
622.07468380
 20
-407.72788086
 30
0.0
 11
-3.78953269
 21
-29.75969492
 31
0.0
 40
0.38484550
 41
3.14159265
 42
3.54237599
  0
ELLIPSE
  5
43F
100
AcDbEntity
  8
0
100
AcDbEllipse
 10
622.07468380
 20
-407.72788086
 30
0.0
 11
19.51640737
 21
-22.78398217
 31
0.0
 40
0.85029138
 41
2.38811585
 42
3.13137019
  0
ELLIPSE
  5
440
100
AcDbEntity
  8
0
100
AcDbEllipse
 10
622.07468380
 20
-407.72788086
 30
0.0
 11
19.23706426
 21
-23.02032490
 31
0.0
 40
0.54584275
 41
3.14159265
 42
3.14801374
  0
POLYLINE
  5
441
100
AcDbEntity
  8
0
100
AcDb2dPolyline
 66
     1
  0
VERTEX
  5
442
100
AcDbEntity
  8
0
100
AcDbVertex
100
AcDb2dVertex
 10
602.83761954
 20
-384.70755596
 30
0.0
 42
-0.175805179
  0
VERTEX
  5
443
100
AcDbEntity
  8
0
100
AcDbVertex
100
AcDb2dVertex
 10
622.07468380
 20
-377.72788086
 30
0.0
 42
-0.031674616
  0
VERTEX
  5
444
100
AcDbEntity
  8
0
100
AcDbVertex
100
AcDb2dVertex
 10
625.86421649
 20
-377.96818594
 30
0.0
  0
SEQEND
  5
445
100
AcDbEntity
  8
0
  0
LINE
  5
446
100
AcDbEntity
  8
0
100
AcDbLine
 10
569.21256997
 20
-392.89993750
 30
0.0
 11
594.63986213
 21
-402.81357396
 31
0.0
  0
LINE
  5
447
100
AcDbEntity
  8
0
100
AcDbLine
 10
569.21256997
 20
-392.89993750
 30
0.0
 11
564.41597460
 21
-397.00862704
 31
0.0
  0
ELLIPSE
  5
448
100
AcDbEntity
  8
0
100
AcDbEllipse
 10
565.60127643
 20
-408.60403624
 30
0.0
 11
11.70986631
 21
-13.67041486
 31
0.0
 40
0.85029414
 41
2.13184876
 42
3.14159265
  0
LINE
  5
449
100
AcDbEntity
  8
0
100
AcDbLine
 10
553.89141012
 20
-394.93362138
 30
0.0
 11
549.09481475
 21
-399.04231092
 31
0.0
  0
ELLIPSE
  5
44A
100
AcDbEntity
  8
0
100
AcDbEllipse
 10
558.86129916
 20
-410.40370291
 30
0.0
 11
5.85492221
 21
-6.83519465
 31
0.0
 40
0.85029138
 41
3.14159265
 42
6.23081907
  0
ELLIPSE
  5
44B
100
AcDbEntity
  8
0
100
AcDbEllipse
 10
563.65789452
 20
-406.29501338
 30
0.0
 11
5.85492221
 21
-6.83519465
 31
0.0
 40
0.85029138
 41
3.56695673
 42
5.85782123
  0
ELLIPSE
  5
44C
100
AcDbEntity
  8
0
100
AcDbEllipse
 10
558.86129916
 20
-410.40370291
 30
0.0
 11
5.85492221
 21
-6.83519465
 31
0.0
 40
0.85029138
 41
0.03192132
 42
3.14159265
  0
POLYLINE
  5
44D
100
AcDbEntity
  8
0
100
AcDb2dPolyline
 66
     1
  0
VERTEX
  5
44E
100
AcDbEntity
  8
0
100
AcDbVertex
100
AcDb2dVertex
 10
1001.54486727
 20
-465.54819255
 30
0.0
 42
-0.171141182
  0
VERTEX
  5
44F
100
AcDbEntity
  8
0
100
AcDbVertex
100
AcDb2dVertex
 10
1009.01832711
 20
-484.04823251
 30
0.0
  0
SEQEND
  5
450
100
AcDbEntity
  8
0
  0
ELLIPSE
  5
451
100
AcDbEntity
  8
0
100
AcDbEllipse
 10
979.04859704
 20
-485.39555574
 30
0.0
 11
29.96973006
 21
1.34732323
 31
0.0
 40
0.38976945
 41
5.85533551
 42
0.00000000
  0
LINE
  5
452
100
AcDbEntity
  8
0
100
AcDbLine
 10
1006.53474670
 20
-489.01642513
 30
0.0
 11
1016.73431284
 21
-715.89460658
 31
0.0
  0
LINE
  5
453
100
AcDbEntity
  8
0
100
AcDbLine
 10
1009.01832711
 20
-484.04823251
 30
0.0
 11
1019.23142400
 21
-711.22739091
 31
0.0
  0
ELLIPSE
  5
454
100
AcDbEntity
  8
0
100
AcDbEllipse
 10
927.28086641
 20
-489.71069031
 30
0.0
 11
19.51640737
 21
-22.78398217
 31
0.0
 40
0.85029138
 41
1.57364491
 42
2.31689926
  0
ELLIPSE
  5
455
100
AcDbEntity
  8
0
100
AcDbEllipse
 10
963.63735145
 20
-471.44510411
 30
0.0
 11
5.85492221
 21
-6.83519465
 31
0.0
 40
0.85029138
 41
3.56695673
 42
4.67309378
  0
ELLIPSE
  5
456
100
AcDbEntity
  8
0
100
AcDbEllipse
 10
958.84075608
 20
-475.55379364
 30
0.0
 11
5.85492221
 21
-6.83519465
 31
0.0
 40
0.85029138
 41
3.14159265
 42
4.67309378
  0
ELLIPSE
  5
457
100
AcDbEntity
  8
0
100
AcDbEllipse
 10
958.84075608
 20
-475.55379364
 30
0.0
 11
5.85492221
 21
-6.83519465
 31
0.0
 40
0.85029138
 41
0.00000000
 42
3.14159265
  0
ELLIPSE
  5
458
100
AcDbEntity
  8
0
100
AcDbEllipse
 10
958.84075608
 20
-475.55379364
 30
0.0
 11
5.85492221
 21
-6.83519465
 31
0.0
 40
0.85029138
 41
4.75738134
 42
0.00000000
  0
LINE
  5
459
100
AcDbEntity
  8
0
100
AcDbLine
 10
953.29806842
 20
-480.83457329
 30
0.0
 11
966.43085598
 21
-496.09119504
 31
0.0
  0
LINE
  5
45A
100
AcDbEntity
  8
0
100
AcDbLine
 10
958.09466379
 20
-476.72588375
 30
0.0
 11
953.29806842
 21
-480.83457329
 31
0.0
  0
ELLIPSE
  5
45B
100
AcDbEntity
  8
0
100
AcDbEllipse
 10
963.63735145
 20
-471.44510411
 30
0.0
 11
5.85492221
 21
-6.83519465
 31
0.0
 40
0.85029138
 41
4.75738134
 42
5.85782123
  0
POLYLINE
  5
45C
100
AcDbEntity
  8
0
100
AcDb2dPolyline
 66
     1
  0
VERTEX
  5
45D
100
AcDbEntity
  8
0
100
AcDbVertex
100
AcDb2dVertex
 10
944.65203119
 20
-787.49574308
 30
0.0
  0
VERTEX
  5
45E
100
AcDbEntity
  8
0
100
AcDbVertex
100
AcDb2dVertex
 10
479.91613072
 20
-711.79789021
 30
0.0
  0
VERTEX
  5
45F
100
AcDbEntity
  8
0
100
AcDbVertex
100
AcDb2dVertex
 10
479.91613072
 20
-727.23569608
 30
0.0
  0
VERTEX
  5
460
100
AcDbEntity
  8
0
100
AcDbVertex
100
AcDb2dVertex
 10
944.65203119
 20
-802.93354895
 30
0.0
  0
VERTEX
  5
461
100
AcDbEntity
  8
0
100
AcDbVertex
100
AcDb2dVertex
 10
944.65203119
 20
-787.49574308
 30
0.0
  0
VERTEX
  5
462
100
AcDbEntity
  8
0
100
AcDbVertex
100
AcDb2dVertex
 10
1042.58251988
 20
-703.60999837
 30
0.0
  0
SEQEND
  5
463
100
AcDbEntity
  8
0
  0
LINE
  5
464
100
AcDbEntity
  8
0
100
AcDbLine
 10
1018.71419689
 20
-699.72224018
 30
0.0
 11
1042.58251988
 21
-703.60999837
 31
0.0
  0
LINE
  5
465
100
AcDbEntity
  8
0
100
AcDbLine
 10
503.82031052
 20
-691.32193884
 30
0.0
 11
479.91613072
 21
-711.79789021
 31
0.0
  0
POLYLINE
  5
466
100
AcDbEntity
  8
0
100
AcDb2dPolyline
 66
     1
  0
VERTEX
  5
467
100
AcDbEntity
  8
0
100
AcDbVertex
100
AcDb2dVertex
 10
1042.58251988
 20
-703.60999837
 30
0.0
  0
VERTEX
  5
468
100
AcDbEntity
  8
0
100
AcDbVertex
100
AcDb2dVertex
 10
1042.58251988
 20
-719.04780424
 30
0.0
  0
VERTEX
  5
469
100
AcDbEntity
  8
0
100
AcDbVertex
100
AcDb2dVertex
 10
944.65203119
 20
-802.93354895
 30
0.0
  0
SEQEND
  5
46A
100
AcDbEntity
  8
0
  0
ENDBLK
  5
46B
100
AcDbEntity
  8
0
100
AcDbBlockEnd
  0
BLOCK
  5
46C
100
AcDbEntity
  8
0
100
AcDbBlockBegin
  2
FROM3D_00037
 70
    64
 10
0.0
 20
0.0
 30
0.0
  3
FROM3D_00037
  0
INSERT
  5
46D
100
AcDbEntity
  8
0
100
AcDbBlockReference
  2
FROM3D_00038
 10
613.71831258
 20
-798.11540711
 30
0.0
  0
ENDBLK
  5
46E
100
AcDbEntity
  8
0
100
AcDbBlockEnd
  0
BLOCK
  5
46F
100
AcDbEntity
  8
0
100
AcDbBlockBegin
  2
FROM3D_00038
 70
    64
 10
613.71831258
 20
-798.11540711
 30
0.0
  3
FROM3D_00038
  0
ELLIPSE
  5
470
100
AcDbEntity
  8
0
100
AcDbEllipse
 10
615.86422237
 20
-800.50591888
 30
0.0
 11
6.75000000
 21
0.00000000
 31
0.0
 40
0.37352854
 41
1.89432334
 42
3.14159265
  0
ELLIPSE
  5
471
100
AcDbEntity
  8
0
100
AcDbEllipse
 10
615.86422237
 20
-800.50591888
 30
0.0
 11
6.75000000
 21
0.0
 31
0.0
 40
0.37352854
 41
3.14159265
 42
4.38886197
  0
POLYLINE
  5
472
100
AcDbEntity
  8
0
100
AcDb2dPolyline
 66
     1
  0
VERTEX
  5
473
100
AcDbEntity
  8
0
100
AcDbVertex
100
AcDb2dVertex
 10
510.37113240
 20
-738.68964697
 30
0.0
  0
VERTEX
  5
474
100
AcDbEntity
  8
0
100
AcDbVertex
100
AcDb2dVertex
 10
510.37113240
 20
-790.30963944
 30
0.0
  0
VERTEX
  5
475
100
AcDbEntity
  8
0
100
AcDbVertex
100
AcDb2dVertex
 10
593.48618410
 20
-803.84771763
 30
0.0
  0
SEQEND
  5
476
100
AcDbEntity
  8
0
  0
LINE
  5
477
100
AcDbEntity
  8
0
100
AcDbLine
 10
613.71831258
 20
-793.22891908
 30
0.0
 11
607.07653763
 21
-792.14708291
 31
0.0
  0
LINE
  5
478
100
AcDbEntity
  8
0
100
AcDbLine
 10
593.48618410
 20
-803.78836994
 30
0.0
 11
613.71831258
 21
-807.08385170
 31
0.0
  0
POLYLINE
  5
479
100
AcDbEntity
  8
0
100
AcDb2dPolyline
 66
     1
  0
VERTEX
  5
47A
100
AcDbEntity
  8
0
100
AcDbVertex
100
AcDb2dVertex
 10
607.07653763
 20
-792.14708291
 30
0.0
  0
VERTEX
  5
47B
100
AcDbEntity
  8
0
100
AcDbVertex
100
AcDb2dVertex
 10
593.48618410
 20
-803.78836994
 30
0.0
  0
VERTEX
  5
47C
100
AcDbEntity
  8
0
100
AcDbVertex
100
AcDb2dVertex
 10
593.48618410
 20
-820.48550631
 30
0.0
  0
SEQEND
  5
47D
100
AcDbEntity
  8
0
  0
LINE
  5
47E
100
AcDbEntity
  8
0
100
AcDbLine
 10
613.71831258
 20
-823.78098808
 30
0.0
 11
593.48618410
 21
-820.48550631
 31
0.0
  0
ELLIPSE
  5
47F
100
AcDbEntity
  8
0
100
AcDbEllipse
 10
826.69117216
 20
-834.84616979
 30
0.0
 11
6.75000000
 21
0.0
 31
0.0
 40
0.37352854
 41
0.0
 42
3.14159265
  0
ELLIPSE
  5
480
100
AcDbEntity
  8
0
100
AcDbEllipse
 10
826.69117216
 20
-834.84616979
 30
0.0
 11
6.75000000
 21
0.0
 31
0.0
 40
0.37352854
 41
3.14159265
 42
0.0
  0
POLYLINE
  5
481
100
AcDbEntity
  8
0
100
AcDb2dPolyline
 66
     1
  0
VERTEX
  5
482
100
AcDbEntity
  8
0
100
AcDbVertex
100
AcDb2dVertex
 10
613.71831258
 20
-832.61182554
 30
0.0
  0
VERTEX
  5
483
100
AcDbEntity
  8
0
100
AcDbVertex
100
AcDb2dVertex
 10
613.71831258
 20
-758.40233052
 30
0.0
  0
VERTEX
  5
484
100
AcDbEntity
  8
0
100
AcDbVertex
100
AcDb2dVertex
 10
733.79801006
 20
-777.96134300
 30
0.0
  0
SEQEND
  5
485
100
AcDbEntity
  8
0
  0
LINE
  5
486
100
AcDbEntity
  8
0
100
AcDbLine
 10
733.79801006
 20
-852.17083801
 30
0.0
 11
733.79801006
 21
-777.96134300
 31
0.0
  0
LINE
  5
487
100
AcDbEntity
  8
0
100
AcDbLine
 10
733.79801006
 20
-852.17083801
 30
0.0
 11
613.71831258
 21
-832.61182554
 31
0.0
  0
LINE
  5
488
100
AcDbEntity
  8
0
100
AcDbLine
 10
744.59034963
 20
-842.92628655
 30
0.0
 11
733.79801006
 21
-852.17083801
 31
0.0
  0
LINE
  5
489
100
AcDbEntity
  8
0
100
AcDbLine
 10
744.59034963
 20
-776.84011442
 30
0.0
 11
744.59034963
 21
-842.92628655
 31
0.0
  0
POLYLINE
  5
48A
100
AcDbEntity
  8
0
100
AcDb2dPolyline
 66
     1
  0
VERTEX
  5
48B
100
AcDbEntity
  8
0
100
AcDbVertex
100
AcDb2dVertex
 10
742.99148451
 20
-776.57968553
 30
0.0
  0
VERTEX
  5
48C
100
AcDbEntity
  8
0
100
AcDbVertex
100
AcDb2dVertex
 10
742.99148451
 20
-770.08635472
 30
0.0
  0
VERTEX
  5
48D
100
AcDbEntity
  8
0
100
AcDbVertex
100
AcDb2dVertex
 10
733.79801006
 20
-777.96134300
 30
0.0
  0
SEQEND
  5
48E
100
AcDbEntity
  8
0
  0
POLYLINE
  5
48F
100
AcDbEntity
  8
0
100
AcDb2dPolyline
 66
     1
  0
VERTEX
  5
490
100
AcDbEntity
  8
0
100
AcDbVertex
100
AcDb2dVertex
 10
742.99148451
 20
-770.08635472
 30
0.0
  0
VERTEX
  5
491
100
AcDbEntity
  8
0
100
AcDbVertex
100
AcDb2dVertex
 10
944.65203119
 20
-802.93354895
 30
0.0
  0
VERTEX
  5
492
100
AcDbEntity
  8
0
100
AcDbVertex
100
AcDb2dVertex
 10
944.65203119
 20
-809.42687977
 30
0.0
  0
VERTEX
  5
493
100
AcDbEntity
  8
0
100
AcDbVertex
100
AcDb2dVertex
 10
801.19805543
 20
-786.06058089
 30
0.0
  0
SEQEND
  5
494
100
AcDbEntity
  8
0
  0
LINE
  5
495
100
AcDbEntity
  8
0
100
AcDbLine
 10
945.77461566
 20
-808.46529124
 30
0.0
 11
945.77461566
 21
-861.22972283
 31
0.0
  0
LINE
  5
496
100
AcDbEntity
  8
0
100
AcDbLine
 10
849.06921043
 20
-845.47799905
 30
0.0
 11
945.77461566
 21
-861.22972283
 31
0.0
  0
LINE
  5
497
100
AcDbEntity
  8
0
100
AcDbLine
 10
835.47885690
 20
-859.90214213
 30
0.0
 11
851.79892401
 21
-845.92262460
 31
0.0
  0
LINE
  5
498
100
AcDbEntity
  8
0
100
AcDbLine
 10
835.47885690
 20
-859.90214213
 30
0.0
 11
792.39682803
 21
-852.88478651
 31
0.0
  0
LINE
  5
499
100
AcDbEntity
  8
0
100
AcDbLine
 10
792.39682803
 20
-850.10193045
 30
0.0
 11
792.39682803
 21
-852.88478651
 31
0.0
  0
LINE
  5
49A
100
AcDbEntity
  8
0
100
AcDbLine
 10
790.10523075
 20
-849.72866685
 30
0.0
 11
792.39682803
 21
-850.10193045
 31
0.0
  0
LINE
  5
49B
100
AcDbEntity
  8
0
100
AcDbLine
 10
789.50565633
 20
-850.24225305
 30
0.0
 11
790.10523075
 21
-849.72866685
 31
0.0
  0
LINE
  5
49C
100
AcDbEntity
  8
0
100
AcDbLine
 10
744.59034963
 20
-842.92628655
 30
0.0
 11
789.50565633
 21
-850.24225305
 31
0.0
  0
LINE
  5
49D
100
AcDbEntity
  8
0
100
AcDbLine
 10
789.50565633
 20
-821.65473167
 30
0.0
 11
789.50565633
 21
-850.24225305
 31
0.0
  0
LINE
  5
49E
100
AcDbEntity
  8
0
100
AcDbLine
 10
789.50565633
 20
-821.65473167
 30
0.0
 11
789.04733687
 21
-821.58007895
 31
0.0
  0
LINE
  5
49F
100
AcDbEntity
  8
0
100
AcDbLine
 10
787.44847175
 20
-783.82099931
 30
0.0
 11
789.04733687
 21
-821.58007895
 31
0.0
  0
LINE
  5
4A0
100
AcDbEntity
  8
0
100
AcDbLine
 10
801.19805543
 20
-786.06058089
 30
0.0
 11
787.44847175
 21
-783.82099931
 31
0.0
  0
LINE
  5
4A1
100
AcDbEntity
  8
0
100
AcDbLine
 10
803.39649497
 20
-837.97931540
 30
0.0
 11
801.19805543
 21
-786.06058089
 31
0.0
  0
POLYLINE
  5
4A2
100
AcDbEntity
  8
0
100
AcDb2dPolyline
 66
     1
  0
VERTEX
  5
4A3
100
AcDbEntity
  8
0
100
AcDbVertex
100
AcDb2dVertex
 10
803.39649497
 20
-837.97931540
 30
0.0
  0
VERTEX
  5
4A4
100
AcDbEntity
  8
0
100
AcDbVertex
100
AcDb2dVertex
 10
835.47885690
 20
-843.20500576
 30
0.0
  0
VERTEX
  5
4A5
100
AcDbEntity
  8
0
100
AcDbVertex
100
AcDb2dVertex
 10
835.47885690
 20
-859.90214213
 30
0.0
  0
SEQEND
  5
4A6
100
AcDbEntity
  8
0
  0
LINE
  5
4A7
100
AcDbEntity
  8
0
100
AcDbLine
 10
849.06921043
 20
-831.56371873
 30
0.0
 11
835.47885690
 21
-843.20500576
 31
0.0
  0
LINE
  5
4A8
100
AcDbEntity
  8
0
100
AcDbLine
 10
849.06921043
 20
-831.56371873
 30
0.0
 11
816.98684850
 21
-826.33802838
 31
0.0
  0
LINE
  5
4A9
100
AcDbEntity
  8
0
100
AcDbLine
 10
803.39649497
 20
-837.97931540
 30
0.0
 11
816.98684850
 21
-826.33802838
 31
0.0
  0
LINE
  5
4AA
100
AcDbEntity
  8
0
100
AcDbLine
 10
803.39649497
 20
-837.97931540
 30
0.0
 11
790.10523075
 21
-835.81438654
 31
0.0
  0
POLYLINE
  5
4AB
100
AcDbEntity
  8
0
100
AcDb2dPolyline
 66
     1
  0
VERTEX
  5
4AC
100
AcDbEntity
  8
0
100
AcDbVertex
100
AcDb2dVertex
 10
790.10523075
 20
-849.72866685
 30
0.0
  0
VERTEX
  5
4AD
100
AcDbEntity
  8
0
100
AcDbVertex
100
AcDb2dVertex
 10
790.10523075
 20
-835.81438654
 30
0.0
  0
VERTEX
  5
4AE
100
AcDbEntity
  8
0
100
AcDbVertex
100
AcDb2dVertex
 10
789.50565633
 20
-821.65473167
 30
0.0
  0
SEQEND
  5
4AF
100
AcDbEntity
  8
0
  0
LINE
  5
4B0
100
AcDbEntity
  8
0
100
AcDbLine
 10
816.98684850
 20
-826.33802838
 30
0.0
 11
816.98684850
 21
-788.63231622
 31
0.0
  0
LINE
  5
4B1
100
AcDbEntity
  8
0
100
AcDbLine
 10
849.06921043
 20
-845.47799905
 30
0.0
 11
849.06921043
 21
-831.56371873
 31
0.0
  0
LINE
  5
4B2
100
AcDbEntity
  8
0
100
AcDbLine
 10
787.44847175
 20
-783.82099931
 30
0.0
 11
742.99148451
 21
-776.57968553
 31
0.0
  0
LINE
  5
4B3
100
AcDbEntity
  8
0
100
AcDbLine
 10
1012.12751820
 20
-804.39285091
 30
0.0
 11
945.77461566
 21
-861.22972283
 31
0.0
  0
LINE
  5
4B4
100
AcDbEntity
  8
0
100
AcDbLine
 10
1012.12751820
 20
-751.62841932
 30
0.0
 11
1012.12751820
 21
-804.39285091
 31
0.0
  0
LINE
  5
4B5
100
AcDbEntity
  8
0
100
AcDbLine
 10
944.65203119
 20
-809.42687977
 30
0.0
 11
1042.58251988
 21
-725.54113506
 31
0.0
  0
LINE
  5
4B6
100
AcDbEntity
  8
0
100
AcDbLine
 10
1042.58251988
 20
-719.04780424
 30
0.0
 11
1042.58251988
 21
-725.54113506
 31
0.0
  0
LINE
  5
4B7
100
AcDbEntity
  8
0
100
AcDbLine
 10
1042.58251988
 20
-719.04780424
 30
0.0
 11
944.65203119
 21
-802.93354895
 31
0.0
  0
POLYLINE
  5
4B8
100
AcDbEntity
  8
0
100
AcDb2dPolyline
 66
     1
  0
VERTEX
  5
4B9
100
AcDbEntity
  8
0
100
AcDbVertex
100
AcDb2dVertex
 10
479.91613072
 20
-727.23569608
 30
0.0
  0
VERTEX
  5
4BA
100
AcDbEntity
  8
0
100
AcDbVertex
100
AcDb2dVertex
 10
622.91178702
 20
-750.52734225
 30
0.0
  0
VERTEX
  5
4BB
100
AcDbEntity
  8
0
100
AcDbVertex
100
AcDb2dVertex
 10
613.71831258
 20
-758.40233052
 30
0.0
  0
SEQEND
  5
4BC
100
AcDbEntity
  8
0
  0
LINE
  5
4BD
100
AcDbEntity
  8
0
100
AcDbLine
 10
616.54245534
 20
-755.98321343
 30
0.0
 11
479.91613072
 21
-733.72902690
 31
0.0
  0
LINE
  5
4BE
100
AcDbEntity
  8
0
100
AcDbLine
 10
479.91613072
 20
-727.23569608
 30
0.0
 11
479.91613072
 21
-733.72902690
 31
0.0
  0
ENDBLK
  5
4BF
100
AcDbEntity
  8
0
100
AcDbBlockEnd
  0
BLOCK
  5
4C0
100
AcDbEntity
  8
0
100
AcDbBlockBegin
  2
FROM3D_00039
 70
    64
 10
0.0
 20
0.0
 30
0.0
  3
FROM3D_00039
  0
INSERT
  5
4C1
100
AcDbEntity
  8
0
100
AcDbBlockReference
  2
FROM3D_00040
 10
909.38898730
 20
-385.50107205
 30
0.0
  0
ENDBLK
  5
4C2
100
AcDbEntity
  8
0
100
AcDbBlockEnd
  0
BLOCK
  5
4C3
100
AcDbEntity
  8
0
100
AcDbBlockBegin
  2
FROM3D_00040
 70
    64
 10
909.38898730
 20
-385.50107205
 30
0.0
  3
FROM3D_00040
  0
POLYLINE
  5
4C4
100
AcDbEntity
  8
LE_ALL
100
AcDb2dPolyline
  6
PHANTOM
 62
     1
 66
     1
 70
     1
  0
VERTEX
  5
4C5
100
AcDbEntity
  8
LE_ALL
100
AcDbVertex
100
AcDb2dVertex
 10
909.38898730
 20
-385.50107205
 30
0.0
  0
VERTEX
  5
4C6
100
AcDbEntity
  8
LE_ALL
100
AcDbVertex
100
AcDb2dVertex
 10
527.61112958
 20
-323.31572319
 30
0.0
  0
VERTEX
  5
4C7
100
AcDbEntity
  8
LE_ALL
100
AcDbVertex
100
AcDb2dVertex
 10
531.46508155
 20
-236.34174519
 30
0.0
  0
VERTEX
  5
4C8
100
AcDbEntity
  8
LE_ALL
100
AcDbVertex
100
AcDb2dVertex
 10
551.57931987
 20
-219.52138146
 30
0.0
  0
VERTEX
  5
4C9
100
AcDbEntity
  8
LE_ALL
100
AcDbVertex
100
AcDb2dVertex
 10
720.09547294
 20
-240.80999748
 30
0.0
  0
VERTEX
  5
4CA
100
AcDbEntity
  8
LE_ALL
100
AcDbVertex
100
AcDb2dVertex
 10
888.43899745
 20
-274.39029580
 30
0.0
  0
VERTEX
  5
4CB
100
AcDbEntity
  8
LE_ALL
100
AcDbVertex
100
AcDb2dVertex
 10
907.99003598
 20
-297.67148231
 30
0.0
  0
SEQEND
  5
4CC
100
AcDbEntity
  8
LE_ALL
  0
ELLIPSE
  5
4CD
100
AcDbEntity
  8
LE_ALL
100
AcDbEllipse
  6
PHANTOM
 62
     1
 10
921.35909072
 20
-375.21921453
 30
0.0
 11
30.00338737
 21
-0.00832730
 31
0.0
 40
0.37382410
 41
4.30211209
 42
5.87189401
  0
LINE
  5
4CE
100
AcDbEntity
  8
LE_ALL
100
AcDbLine
  6
PHANTOM
 62
     1
 10
948.85911114
 20
-379.71092439
 30
0.0
 11
947.46115417
 21
-291.94376288
 31
0.0
  0
ELLIPSE
  5
4CF
100
AcDbEntity
  8
LE_ALL
100
AcDbEllipse
  6
PHANTOM
 62
     1
 10
919.97500451
 20
-288.32289349
 30
0.0
 11
29.99619520
 21
0.47777995
 31
0.0
 40
0.33372541
 41
4.29605410
 42
5.86583603
  0
ELLIPSE
  5
4D0
100
AcDbEntity
  8
LE_ALL
100
AcDbEllipse
  6
PHANTOM
 62
     1
 10
919.97500451
 20
-288.32289349
 30
0.0
 11
22.97365255
 21
19.29277814
 31
0.0
 40
0.02119831
 41
0.55439426
 42
2.10172217
  0
LINE
  5
4D1
100
AcDbEntity
  8
LE_ALL
100
AcDbLine
  6
PHANTOM
 62
     1
 10
939.29235566
 20
-271.66342584
 30
0.0
 11
919.74131713
 21
-248.38223933
 31
0.0
  0
ELLIPSE
  5
4D2
100
AcDbEntity
  8
LE_ALL
100
AcDbEllipse
  6
PHANTOM
 62
     1
 10
900.42396598
 20
-265.04170698
 30
0.0
 11
22.97365255
 21
19.29277814
 31
0.0
 40
0.02119831
 41
0.55439426
 42
2.10172217
  0
ELLIPSE
  5
4D3
100
AcDbEntity
  8
LE_ALL
100
AcDbEllipse
  6
PHANTOM
 62
     1
 10
900.42396598
 20
-265.04170698
 30
0.0
 11
-5.86862726
 21
-29.42038773
 31
0.0
 40
0.35824972
 41
3.56840235
 42
5.10624209
  0
LINE
  5
4D4
100
AcDbEntity
  8
LE_ALL
100
AcDbLine
  6
PHANTOM
 62
     1
 10
901.40295752
 20
-237.39024877
 30
0.0
 11
733.05943301
 21
-203.80995045
 31
0.0
  0
ELLIPSE
  5
4D5
100
AcDbEntity
  8
LE_ALL
100
AcDbEllipse
  6
PHANTOM
 62
     1
 10
732.08044147
 20
-231.46140866
 30
0.0
 11
19.51640737
 21
-22.78398217
 31
0.0
 40
0.85029138
 41
2.31689926
 42
2.38811585
  0
LINE
  5
4D6
100
AcDbEntity
  8
LE_ALL
100
AcDbLine
  6
PHANTOM
 62
     1
 10
789.43921759
 20
-153.51979601
 30
0.0
 11
731.10144993
 21
-203.49102713
 31
0.0
  0
ELLIPSE
  5
4D7
100
AcDbEntity
  8
LE_ALL
100
AcDbEllipse
  6
PHANTOM
 62
     1
 10
790.41820913
 20
-181.49017754
 30
0.0
 11
-3.78953269
 21
-29.75969492
 31
0.0
 40
0.38484550
 41
3.14159265
 42
3.54237599
  0
ARC
  5
4D8
100
AcDbEntity
  8
LE_ALL
100
AcDbCircle
  6
PHANTOM
 10
790.41820913
 20
-181.49017754
 30
0.0
 40
30.00000000
100
AcDbArc
 50
78.913653113
 51
82.743139097
  0
ELLIPSE
  5
4D9
100
AcDbEntity
  8
LE_ALL
100
AcDbEllipse
  6
PHANTOM
 62
     1
 10
790.41820913
 20
-181.49017754
 30
0.0
 11
-5.83800797
 21
-29.42647894
 31
0.0
 40
0.35625248
 41
3.14159265
 42
3.56803058
  0
LINE
  5
4DA
100
AcDbEntity
  8
LE_ALL
100
AcDbLine
  6
PHANTOM
 62
     1
 10
791.39720067
 20
-153.83871932
 30
0.0
 11
959.91335292
 21
-187.27114738
 31
0.0
  0
ELLIPSE
  5
4DB
100
AcDbEntity
  8
LE_ALL
100
AcDbEllipse
  6
PHANTOM
 62
     1
 10
958.93436139
 20
-214.92260560
 30
0.0
 11
-5.83800797
 21
-29.42647894
 31
0.0
 40
0.35625248
 41
3.14159265
 42
3.56803058
  0
ARC
  5
4DC
100
AcDbEntity
  8
LE_ALL
100
AcDbCircle
  6
PHANTOM
 10
958.93436139
 20
-214.92260560
 30
0.0
 40
30.00000000
100
AcDbArc
 50
41.420390425
 51
78.778626727
  0
ELLIPSE
  5
4DD
100
AcDbEntity
  8
LE_ALL
100
AcDbEllipse
  6
PHANTOM
 62
     1
 10
958.93436139
 20
-214.92260560
 30
0.0
 11
22.49627023
 21
19.84736319
 31
0.0
 40
0.01820044
 41
5.72882762
 42
6.28318531
  0
LINE
  5
4DE
100
AcDbEntity
  8
LE_ALL
100
AcDbLine
  6
PHANTOM
 62
     1
 10
978.25171254
 20
-198.26313794
 30
0.0
 11
998.36594819
 21
-221.06189849
 31
0.0
  0
ELLIPSE
  5
4DF
100
AcDbEntity
  8
LE_ALL
100
AcDbEllipse
  6
PHANTOM
 62
     1
 10
979.04859704
 20
-237.72136614
 30
0.0
 11
22.49627023
 21
19.84736319
 31
0.0
 40
0.01820044
 41
5.72882762
 42
6.28318531
  0
POLYLINE
  5
4E0
100
AcDbEntity
  8
LE_ALL
100
AcDb2dPolyline
  6
PHANTOM
 66
     1
  0
VERTEX
  5
4E1
100
AcDbEntity
  8
LE_ALL
100
AcDbVertex
100
AcDb2dVertex
 10
1001.54641218
 20
-217.87575419
 30
0.0
 42
-0.171121152
  0
VERTEX
  5
4E2
100
AcDbEntity
  8
LE_ALL
100
AcDbVertex
100
AcDb2dVertex
 10
1009.01832711
 20
-236.37404291
 30
0.0
  0
SEQEND
  5
4E3
100
AcDbEntity
  8
LE_ALL
  0
ELLIPSE
  5
4E4
100
AcDbEntity
  8
LE_ALL
100
AcDbEllipse
  6
PHANTOM
 62
     1
 10
979.04859704
 20
-237.72136614
 30
0.0
 11
29.96973006
 21
1.34732323
 31
0.0
 40
0.38976945
 41
5.85533551
 42
0.00000000
  0
POLYLINE
  5
4E5
100
AcDbEntity
  8
LE_ALL
100
AcDb2dPolyline
  6
PHANTOM
 62
     1
 66
     1
  0
VERTEX
  5
4E6
100
AcDbEntity
  8
LE_ALL
100
AcDbVertex
100
AcDb2dVertex
 10
1006.53474670
 20
-241.34223553
 30
0.0
  0
VERTEX
  5
4E7
100
AcDbEntity
  8
LE_ALL
100
AcDbVertex
100
AcDb2dVertex
 10
1010.38594774
 20
-327.00798604
 30
0.0
  0
VERTEX
  5
4E8
100
AcDbEntity
  8
LE_ALL
100
AcDbVertex
100
AcDb2dVertex
 10
948.85911114
 20
-379.71092439
 30
0.0
  0
SEQEND
  5
4E9
100
AcDbEntity
  8
LE_ALL
  0
ELLIPSE
  5
4EA
100
AcDbEntity
  8
LE_ALL
100
AcDbEllipse
  6
PHANTOM
 62
     1
 10
982.86158582
 20
-322.53712673
 30
0.0
 11
30.02569938
 21
0.00965970
 31
0.0
 40
0.37326872
 41
5.87199436
 42
0.01665885
  0
LINE
  5
4EB
100
AcDbEntity
  8
LE_ALL
100
AcDbLine
  6
PHANTOM
 10
1009.01832711
 20
-236.37404291
 30
0.0
 11
1012.88305890
 21
-322.34077036
 31
0.0
  0
LINE
  5
4EC
100
AcDbEntity
  8
LE_ALL
100
AcDbLine
  6
PHANTOM
 62
     1
 10
947.46115417
 20
-291.94376288
 30
0.0
 11
1006.53474670
 21
-241.34223553
 31
0.0
  0
ELLIPSE
  5
4ED
100
AcDbEntity
  8
LE_ALL
100
AcDbEllipse
  6
PHANTOM
 62
     1
 10
919.97500451
 20
-288.32289349
 30
0.0
 11
19.51640737
 21
-22.78398217
 31
0.0
 40
0.85029138
 41
0.81248208
 42
1.57364491
  0
LINE
  5
4EE
100
AcDbEntity
  8
LE_ALL
100
AcDbLine
  6
PHANTOM
 62
     1
 10
966.43085598
 20
-248.41700544
 30
0.0
 11
939.29235566
 21
-271.66342584
 31
0.0
  0
ELLIPSE
  5
4EF
100
AcDbEntity
  8
LE_ALL
100
AcDbEllipse
  6
PHANTOM
 62
     1
 10
947.11350483
 20
-265.07647310
 30
0.0
 11
19.51640737
 21
-22.78398217
 31
0.0
 40
0.85029138
 41
0.89430454
 42
1.57364491
  0
POLYLINE
  5
4F0
100
AcDbEntity
  8
LE_ALL
100
AcDb2dPolyline
  6
PHANTOM
 62
     1
 66
     1
  0
VERTEX
  5
4F1
100
AcDbEntity
  8
LE_ALL
100
AcDbVertex
100
AcDb2dVertex
 10
974.43854928
 20
-266.40058060
 30
0.0
  0
VERTEX
  5
4F2
100
AcDbEntity
  8
LE_ALL
100
AcDbVertex
100
AcDb2dVertex
 10
979.23514465
 20
-262.29189106
 30
0.0
  0
SEQEND
  5
4F3
100
AcDbEntity
  8
LE_ALL
  0
ELLIPSE
  5
4F4
100
AcDbEntity
  8
LE_ALL
100
AcDbEllipse
  6
PHANTOM
 62
     1
 10
951.91010020
 20
-260.96778356
 30
0.0
 11
19.51640737
 21
-22.78398217
 31
0.0
 40
0.85029138
 41
0.89430454
 42
1.57364491
  0
LINE
  5
4F5
100
AcDbEntity
  8
LE_ALL
100
AcDbLine
  6
PHANTOM
 62
     1
 10
998.36594819
 20
-221.06189849
 30
0.0
 11
971.22745135
 21
-244.30831590
 31
0.0
  0
ELLIPSE
  5
4F6
100
AcDbEntity
  8
LE_ALL
100
AcDbEllipse
  6
PHANTOM
 62
     1
 10
979.04859704
 20
-237.72136614
 30
0.0
 11
19.51640737
 21
-22.78398217
 31
0.0
 40
0.85029138
 41
0.81248208
 42
1.57364491
  0
POLYLINE
  5
4F7
100
AcDbEntity
  8
LE_ALL
100
AcDb2dPolyline
  6
PHANTOM
 62
     1
 66
     1
  0
VERTEX
  5
4F8
100
AcDbEntity
  8
LE_ALL
100
AcDbVertex
100
AcDb2dVertex
 10
971.22745135
 20
-244.30831590
 30
0.0
  0
VERTEX
  5
4F9
100
AcDbEntity
  8
LE_ALL
100
AcDbVertex
100
AcDb2dVertex
 10
958.09466379
 20
-229.05169415
 30
0.0
  0
VERTEX
  5
4FA
100
AcDbEntity
  8
LE_ALL
100
AcDbVertex
100
AcDb2dVertex
 10
953.29806842
 20
-233.16038369
 30
0.0
  0
SEQEND
  5
4FB
100
AcDbEntity
  8
LE_ALL
  0
ELLIPSE
  5
4FC
100
AcDbEntity
  8
LE_ALL
100
AcDbEllipse
  6
PHANTOM
 62
     1
 10
958.84075608
 20
-227.87960405
 30
0.0
 11
5.85492221
 21
-6.83519465
 31
0.0
 40
0.85029138
 41
4.75738134
 42
0.00000000
  0
ELLIPSE
  5
4FD
100
AcDbEntity
  8
LE_ALL
100
AcDbEllipse
  6
PHANTOM
 62
     1
 10
958.84075608
 20
-227.87960405
 30
0.0
 11
5.85492221
 21
-6.83519465
 31
0.0
 40
0.85029138
 41
0.00000000
 42
3.14159265
  0
ELLIPSE
  5
4FE
100
AcDbEntity
  8
LE_ALL
100
AcDbEllipse
  6
PHANTOM
 62
     1
 10
958.84075608
 20
-227.87960405
 30
0.0
 11
5.85492221
 21
-6.83519465
 31
0.0
 40
0.85029138
 41
3.14159265
 42
4.67309378
  0
LINE
  5
4FF
100
AcDbEntity
  8
LE_ALL
100
AcDbLine
  6
PHANTOM
 62
     1
 10
946.59821756
 20
-225.37703305
 30
0.0
 11
952.80332439
 21
-232.58562966
 31
0.0
  0
ELLIPSE
  5
500
100
AcDbEntity
  8
LE_ALL
100
AcDbEllipse
  6
PHANTOM
 62
     1
 10
927.28086641
 20
-242.03650071
 30
0.0
 11
19.51640737
 21
-22.78398217
 31
0.0
 40
0.85029138
 41
1.57364491
 42
2.31689926
  0
POLYLINE
  5
501
100
AcDbEntity
  8
LE_ALL
100
AcDb2dPolyline
  6
PHANTOM
 62
     1
 66
     1
  0
VERTEX
  5
502
100
AcDbEntity
  8
LE_ALL
100
AcDbVertex
100
AcDb2dVertex
 10
928.25985795
 20
-214.38504249
 30
0.0
  0
VERTEX
  5
503
100
AcDbEntity
  8
LE_ALL
100
AcDbVertex
100
AcDb2dVertex
 10
901.40295752
 20
-237.39024877
 30
0.0
  0
SEQEND
  5
504
100
AcDbEntity
  8
LE_ALL
  0
ELLIPSE
  5
505
100
AcDbEntity
  8
LE_ALL
100
AcDbEllipse
  6
PHANTOM
 62
     1
 10
900.42396598
 20
-265.04170698
 30
0.0
 11
19.51640737
 21
-22.78398217
 31
0.0
 40
0.85029138
 41
1.57364491
 42
2.31689926
  0
LINE
  5
506
100
AcDbEntity
  8
LE_ALL
100
AcDbLine
  6
PHANTOM
 62
     1
 10
919.74131713
 20
-248.38223933
 30
0.0
 11
946.59821756
 21
-225.37703305
 31
0.0
  0
LINE
  5
507
100
AcDbEntity
  8
LE_ALL
100
AcDbLine
  6
PHANTOM
 62
     1
 10
927.85878847
 20
-214.30525628
 30
0.0
 11
928.25985795
 21
-214.38504249
 31
0.0
  0
LINE
  5
508
100
AcDbEntity
  8
LE_ALL
100
AcDbLine
  6
PHANTOM
 62
     1
 10
932.65538384
 20
-210.19656674
 30
0.0
 11
927.85878847
 21
-214.30525628
 31
0.0
  0
LINE
  5
509
100
AcDbEntity
  8
LE_ALL
100
AcDbLine
  6
PHANTOM
 62
     1
 10
958.08267600
 20
-208.56630765
 30
0.0
 11
932.65538384
 21
-210.19656674
 31
0.0
  0
POLYLINE
  5
50A
100
AcDbEntity
  8
LE_ALL
100
AcDb2dPolyline
  6
PHANTOM
 62
     1
 66
     1
  0
VERTEX
  5
50B
100
AcDbEntity
  8
LE_ALL
100
AcDbVertex
100
AcDb2dVertex
 10
958.08267600
 20
-208.56630765
 30
0.0
  0
VERTEX
  5
50C
100
AcDbEntity
  8
LE_ALL
100
AcDbVertex
100
AcDb2dVertex
 10
953.28608064
 20
-212.67499719
 30
0.0
  0
SEQEND
  5
50D
100
AcDbEntity
  8
LE_ALL
  0
ELLIPSE
  5
50E
100
AcDbEntity
  8
LE_ALL
100
AcDbEllipse
  6
PHANTOM
 62
     1
 10
956.89737417
 20
-229.55553685
 30
0.0
 11
11.70986631
 21
-13.67041486
 31
0.0
 40
0.85029138
 41
0.81247880
 42
2.57316635
  0
LINE
  5
50F
100
AcDbEntity
  8
LE_ALL
100
AcDbLine
  6
PHANTOM
 62
     1
 10
973.38914828
 20
-231.72807303
 30
0.0
 11
978.18574365
 21
-227.61938349
 31
0.0
  0
POLYLINE
  5
510
100
AcDbEntity
  8
LE_ALL
100
AcDb2dPolyline
  6
PHANTOM
 62
     1
 66
     1
  0
VERTEX
  5
511
100
AcDbEntity
  8
LE_ALL
100
AcDbVertex
100
AcDb2dVertex
 10
979.23514465
 20
-262.29189106
 30
0.0
  0
VERTEX
  5
512
100
AcDbEntity
  8
LE_ALL
100
AcDbVertex
100
AcDb2dVertex
 10
978.18574365
 20
-227.61938349
 30
0.0
  0
SEQEND
  5
513
100
AcDbEntity
  8
LE_ALL
  0
ELLIPSE
  5
514
100
AcDbEntity
  8
LE_ALL
100
AcDbEllipse
  6
PHANTOM
 62
     1
 10
961.69396954
 20
-225.44684732
 30
0.0
 11
11.70990422
 21
-13.67045910
 31
0.0
 40
0.85029138
 41
0.81248187
 42
2.57316128
  0
LINE
  5
515
100
AcDbEntity
  8
LE_ALL
100
AcDbLine
  6
PHANTOM
 62
     1
 10
974.43854928
 20
-266.40058060
 30
0.0
 11
973.38914828
 21
-231.72807303
 31
0.0
  0
LINE
  5
516
100
AcDbEntity
  8
LE_ALL
100
AcDbLine
  6
PHANTOM
 62
     1
 10
953.28608064
 20
-212.67499719
 30
0.0
 11
927.85878847
 21
-214.30525628
 31
0.0
  0
LINE
  5
517
100
AcDbEntity
  8
LE_ALL
100
AcDbLine
  6
PHANTOM
 62
     1
 10
933.05645331
 20
-210.27635296
 30
0.0
 11
932.65538384
 21
-210.19656674
 31
0.0
  0
LINE
  5
518
100
AcDbEntity
  8
LE_ALL
100
AcDbLine
  6
PHANTOM
 62
     1
 10
959.91335292
 20
-187.27114738
 30
0.0
 11
933.05645331
 21
-210.27635296
 31
0.0
  0
ELLIPSE
  5
519
100
AcDbEntity
  8
LE_ALL
100
AcDbEllipse
  6
PHANTOM
 62
     1
 10
958.93436139
 20
-214.92260560
 30
0.0
 11
19.51640737
 21
-22.78398217
 31
0.0
 40
0.85029138
 41
1.57364491
 42
2.31689926
  0
LINE
  5
51A
100
AcDbEntity
  8
LE_ALL
100
AcDbLine
  6
PHANTOM
 62
     1
 10
951.39481293
 20
-221.26834352
 30
0.0
 11
978.25171254
 21
-198.26313794
 31
0.0
  0
LINE
  5
51B
100
AcDbEntity
  8
LE_ALL
100
AcDbLine
  6
PHANTOM
 62
     1
 10
957.59991975
 20
-228.47694012
 30
0.0
 11
951.39481293
 21
-221.26834352
 31
0.0
  0
POLYLINE
  5
51C
100
AcDbEntity
  8
LE_ALL
100
AcDb2dPolyline
  6
PHANTOM
 62
     1
 66
     1
  0
VERTEX
  5
51D
100
AcDbEntity
  8
LE_ALL
100
AcDbVertex
100
AcDb2dVertex
 10
952.80332439
 20
-232.58562966
 30
0.0
  0
VERTEX
  5
51E
100
AcDbEntity
  8
LE_ALL
100
AcDbVertex
100
AcDb2dVertex
 10
957.59991975
 20
-228.47694012
 30
0.0
  0
SEQEND
  5
51F
100
AcDbEntity
  8
LE_ALL
  0
ELLIPSE
  5
520
100
AcDbEntity
  8
LE_ALL
100
AcDbEllipse
  6
PHANTOM
 62
     1
 10
963.63735145
 20
-223.77091451
 30
0.0
 11
5.85492221
 21
-6.83519465
 31
0.0
 40
0.85029138
 41
3.14159265
 42
4.67309378
  0
LINE
  5
521
100
AcDbEntity
  8
LE_ALL
100
AcDbLine
  6
PHANTOM
 10
957.78242924
 20
-216.93571986
 30
0.0
 11
952.98583387
 21
-221.04440940
 31
0.0
  0
ELLIPSE
  5
522
100
AcDbEntity
  8
LE_ALL
100
AcDbEllipse
  6
PHANTOM
 62
     1
 10
932.07746178
 20
-237.92781117
 30
0.0
 11
19.51640737
 21
-22.78398217
 31
0.0
 40
0.85029138
 41
1.57364491
 42
2.31689926
  0
LINE
  5
523
100
AcDbEntity
  8
LE_ALL
100
AcDbLine
  6
PHANTOM
 10
969.49227366
 20
-230.60610916
 30
0.0
 11
964.69567830
 21
-234.71479870
 31
0.0
  0
ELLIPSE
  5
524
100
AcDbEntity
  8
LE_ALL
100
AcDbEllipse
  6
PHANTOM
 62
     1
 10
963.63735145
 20
-223.77091451
 30
0.0
 11
5.85492221
 21
-6.83519465
 31
0.0
 40
0.85029138
 41
4.75738134
 42
0.00000000
  0
LINE
  5
525
100
AcDbEntity
  8
LE_ALL
100
AcDbLine
  6
PHANTOM
 62
     1
 10
953.29806842
 20
-233.16038369
 30
0.0
 11
966.43085598
 21
-248.41700544
 31
0.0
  0
LINE
  5
526
100
AcDbEntity
  8
LE_ALL
100
AcDbLine
  6
PHANTOM
 10
981.43063162
 20
-195.07524241
 30
0.0
 11
1001.54486727
 21
-217.87400295
 31
0.0
  0
LINE
  5
527
100
AcDbEntity
  8
LE_ALL
100
AcDbLine
  6
PHANTOM
 10
796.25621710
 20
-152.06369859
 30
0.0
 11
964.77236941
 21
-185.49612667
 31
0.0
  0
ELLIPSE
  5
528
100
AcDbEntity
  8
LE_ALL
100
AcDbEllipse
  6
PHANTOM
 62
     1
 10
790.41820913
 20
-181.49017754
 30
0.0
 11
19.51640737
 21
-22.78398217
 31
0.0
 40
0.85029138
 41
2.31689926
 42
2.38811585
  0
LINE
  5
529
100
AcDbEntity
  8
LE_ALL
100
AcDbLine
  6
PHANTOM
 62
     1
 10
621.09569227
 20
-132.08330973
 30
0.0
 11
789.43921759
 21
-153.51979601
 31
0.0
  0
ELLIPSE
  5
52A
100
AcDbEntity
  8
LE_ALL
100
AcDbEllipse
  6
PHANTOM
 62
     1
 10
622.07468380
 20
-160.05369126
 30
0.0
 11
-3.78953269
 21
-29.75969492
 31
0.0
 40
0.38484550
 41
3.14159265
 42
3.54237599
  0
LINE
  5
52B
100
AcDbEntity
  8
LE_ALL
100
AcDbLine
  6
PHANTOM
 10
625.86421649
 20
-130.29399634
 30
0.0
 11
794.20774182
 21
-151.73048261
 31
0.0
  0
ARC
  5
52C
100
AcDbEntity
  8
LE_ALL
100
AcDbCircle
  6
PHANTOM
 10
622.07468380
 20
-160.05369126
 30
0.0
 40
30.00000000
100
AcDbArc
 50
82.880343284
 51
90.000000000
  0
ARC
  5
52D
100
AcDbEntity
  8
LE_ALL
100
AcDbCircle
  6
PHANTOM
 10
622.07468380
 20
-160.05369126
 30
0.0
 40
30.00000000
100
AcDbArc
 50
90.000000000
 51
129.884007591
  0
ELLIPSE
  5
52E
100
AcDbEntity
  8
LE_ALL
100
AcDbEllipse
  6
PHANTOM
 62
     1
 10
622.07468380
 20
-160.05369126
 30
0.0
 11
19.51640737
 21
-22.78398217
 31
0.0
 40
0.85029138
 41
2.38811585
 42
3.13137019
  0
LINE
  5
52F
100
AcDbEntity
  8
LE_ALL
100
AcDbLine
  6
PHANTOM
 62
     1
 10
594.23879266
 20
-155.08851531
 30
0.0
 11
621.09569227
 21
-132.08330973
 31
0.0
  0
ELLIPSE
  5
530
100
AcDbEntity
  8
LE_ALL
100
AcDbEllipse
  6
PHANTOM
 62
     1
 10
595.21778419
 20
-183.05889684
 30
0.0
 11
19.51640737
 21
-22.78398217
 31
0.0
 40
0.85029138
 41
2.38811585
 42
3.13137019
  0
LINE
  5
531
100
AcDbEntity
  8
LE_ALL
100
AcDbLine
  6
PHANTOM
 62
     1
 10
602.75733266
 20
-137.10126452
 30
0.0
 11
575.90043304
 21
-160.10647009
 31
0.0
  0
LINE
  5
532
100
AcDbEntity
  8
LE_ALL
100
AcDbLine
  6
PHANTOM
 62
     1
 10
583.20629147
 20
-153.43920228
 30
0.0
 11
602.75733266
 21
-137.10126452
 31
0.0
  0
LINE
  5
533
100
AcDbEntity
  8
LE_ALL
100
AcDbLine
  6
PHANTOM
 62
     1
 10
556.06779462
 20
-176.68561970
 30
0.0
 11
583.20629147
 21
-153.43920228
 31
0.0
  0
LINE
  5
534
100
AcDbEntity
  8
LE_ALL
100
AcDbLine
  6
PHANTOM
 62
     1
 10
569.20058218
 20
-165.70722917
 30
0.0
 11
556.06779462
 21
-176.68561970
 31
0.0
  0
LINE
  5
535
100
AcDbEntity
  8
LE_ALL
100
AcDbLine
  6
PHANTOM
 62
     1
 10
564.40398682
 20
-169.81591871
 30
0.0
 11
569.20058218
 21
-165.70722917
 31
0.0
  0
LINE
  5
536
100
AcDbEntity
  8
LE_ALL
100
AcDbLine
  6
PHANTOM
 62
     1
 10
551.27119926
 20
-180.79430924
 30
0.0
 11
564.40398682
 21
-169.81591871
 31
0.0
  0
LINE
  5
537
100
AcDbEntity
  8
LE_ALL
100
AcDbLine
  6
PHANTOM
 62
     1
 10
524.13269894
 20
-204.04072963
 30
0.0
 11
551.27119926
 21
-180.79430924
 31
0.0
  0
ELLIPSE
  5
538
100
AcDbEntity
  8
LE_ALL
100
AcDbEllipse
  6
PHANTOM
 62
     1
 10
543.45005009
 20
-226.99315638
 30
0.0
 11
19.24500403
 21
-23.01368767
 31
0.0
 40
0.50644400
 41
3.14783215
 42
4.69516006
  0
ELLIPSE
  5
539
100
AcDbEntity
  8
LE_ALL
100
AcDbEllipse
  6
PHANTOM
 62
     1
 10
543.45005009
 20
-226.99315638
 30
0.0
 11
29.97059060
 21
-1.32804339
 31
0.0
 40
0.35652812
 41
3.14159265
 42
4.31684253
  0
ARC
  5
53A
100
AcDbEntity
  8
LE_ALL
100
AcDbCircle
  6
PHANTOM
 10
543.45005009
 20
-226.99315638
 30
0.0
 40
30.00000000
100
AcDbArc
 50
130.582849423
 51
177.462794817
  0
ELLIPSE
  5
53B
100
AcDbEntity
  8
LE_ALL
100
AcDbEllipse
  6
PHANTOM
 62
     1
 10
543.45005009
 20
-226.99315638
 30
0.0
 11
19.51640737
 21
-22.78398217
 31
0.0
 40
0.85029138
 41
3.13137019
 42
3.14159265
  0
LINE
  5
53C
100
AcDbEntity
  8
LE_ALL
100
AcDbLine
  6
PHANTOM
 62
     1
 10
544.24693725
 20
-187.22036590
 30
0.0
 11
524.13269894
 21
-204.04072963
 31
0.0
  0
ELLIPSE
  5
53D
100
AcDbEntity
  8
LE_ALL
100
AcDbEllipse
  6
PHANTOM
 62
     1
 10
563.56428840
 20
-210.17279265
 30
0.0
 11
19.24500403
 21
-23.01368767
 31
0.0
 40
0.50644400
 41
3.14783215
 42
4.69516006
  0
ELLIPSE
  5
53E
100
AcDbEntity
  8
LE_ALL
100
AcDbEllipse
  6
PHANTOM
 62
     1
 10
563.56428840
 20
-210.17279265
 30
0.0
 11
-3.76001007
 21
-29.76343939
 31
0.0
 40
0.38284826
 41
3.54199522
 42
5.07983495
  0
POLYLINE
  5
53F
100
AcDbEntity
  8
LE_ALL
100
AcDb2dPolyline
  6
PHANTOM
 62
     1
 66
     1
  0
VERTEX
  5
540
100
AcDbEntity
  8
LE_ALL
100
AcDbVertex
100
AcDb2dVertex
 10
562.58529686
 20
-182.20241112
 30
0.0
  0
VERTEX
  5
541
100
AcDbEntity
  8
LE_ALL
100
AcDbVertex
100
AcDb2dVertex
 10
589.44219729
 20
-159.19720484
 30
0.0
  0
VERTEX
  5
542
100
AcDbEntity
  8
LE_ALL
100
AcDbVertex
100
AcDb2dVertex
 10
589.84326677
 20
-159.24807390
 30
0.0
  0
VERTEX
  5
543
100
AcDbEntity
  8
LE_ALL
100
AcDbVertex
100
AcDb2dVertex
 10
594.63986213
 20
-155.13938436
 30
0.0
  0
VERTEX
  5
544
100
AcDbEntity
  8
LE_ALL
100
AcDbVertex
100
AcDb2dVertex
 10
594.23879266
 20
-155.08851531
 30
0.0
  0
SEQEND
  5
545
100
AcDbEntity
  8
LE_ALL
  0
LINE
  5
546
100
AcDbEntity
  8
LE_ALL
100
AcDbLine
  6
PHANTOM
 62
     1
 10
569.21256997
 20
-145.22574790
 30
0.0
 11
594.63986213
 21
-155.13938436
 31
0.0
  0
POLYLINE
  5
547
100
AcDbEntity
  8
LE_ALL
100
AcDb2dPolyline
  6
PHANTOM
 62
     1
 66
     1
  0
VERTEX
  5
548
100
AcDbEntity
  8
LE_ALL
100
AcDbVertex
100
AcDb2dVertex
 10
569.21256997
 20
-145.22574790
 30
0.0
  0
VERTEX
  5
549
100
AcDbEntity
  8
LE_ALL
100
AcDbVertex
100
AcDb2dVertex
 10
564.41597460
 20
-149.33443744
 30
0.0
  0
VERTEX
  5
54A
100
AcDbEntity
  8
LE_ALL
100
AcDbVertex
100
AcDb2dVertex
 10
589.84326677
 20
-159.24807390
 30
0.0
  0
SEQEND
  5
54B
100
AcDbEntity
  8
LE_ALL
  0
ELLIPSE
  5
54C
100
AcDbEntity
  8
LE_ALL
100
AcDbEllipse
  6
PHANTOM
 62
     1
 10
560.80468107
 20
-165.03853618
 30
0.0
 11
11.70986631
 21
-13.67041486
 31
0.0
 40
0.85029138
 41
2.13184876
 42
3.14159265
  0
ELLIPSE
  5
54D
100
AcDbEntity
  8
LE_ALL
100
AcDbEllipse
  6
PHANTOM
 62
     1
 10
560.80468107
 20
-165.03853618
 30
0.0
 11
11.70986631
 21
-13.67041486
 31
0.0
 40
0.85029138
 41
3.14159265
 42
3.89252976
  0
LINE
  5
54E
100
AcDbEntity
  8
LE_ALL
100
AcDbLine
  6
PHANTOM
 62
     1
 10
543.26350596
 20
-196.16924069
 30
0.0
 11
544.31290696
 21
-161.83859354
 31
0.0
  0
ELLIPSE
  5
54F
100
AcDbEntity
  8
LE_ALL
100
AcDbEllipse
  6
PHANTOM
 62
     1
 10
570.58855041
 20
-203.74673598
 30
0.0
 11
19.51640737
 21
-22.78398217
 31
0.0
 40
0.85029138
 41
3.14159265
 42
3.81071056
  0
ELLIPSE
  5
550
100
AcDbEntity
  8
LE_ALL
100
AcDbEllipse
  6
PHANTOM
 62
     1
 10
570.58855041
 20
-203.74673598
 30
0.0
 11
19.51640737
 21
-22.78398217
 31
0.0
 40
0.85029138
 41
3.13137019
 42
3.14159265
  0
LINE
  5
551
100
AcDbEntity
  8
LE_ALL
100
AcDbLine
  6
PHANTOM
 10
551.07214303
 20
-180.96275382
 30
0.0
 11
523.93364271
 21
-204.20917421
 31
0.0
  0
LINE
  5
552
100
AcDbEntity
  8
LE_ALL
100
AcDbLine
  6
PHANTOM
 10
553.89141012
 20
-147.25943178
 30
0.0
 11
549.09481475
 21
-151.36812132
 31
0.0
  0
ELLIPSE
  5
553
100
AcDbEntity
  8
LE_ALL
100
AcDbEllipse
  6
PHANTOM
 62
     1
 10
565.60127643
 20
-160.92984664
 30
0.0
 11
11.70986631
 21
-13.67041486
 31
0.0
 40
0.85029414
 41
2.13184876
 42
3.14159265
  0
ELLIPSE
  5
554
100
AcDbEntity
  8
LE_ALL
100
AcDbEllipse
  6
PHANTOM
 62
     1
 10
590.42118883
 20
-187.16758637
 30
0.0
 11
19.51640737
 21
-22.78398217
 31
0.0
 40
0.85029138
 41
2.38811585
 42
3.13137019
  0
POLYLINE
  5
555
100
AcDbEntity
  8
LE_ALL
100
AcDb2dPolyline
  6
PHANTOM
 62
     1
 66
     1
  0
VERTEX
  5
556
100
AcDbEntity
  8
LE_ALL
100
AcDbVertex
100
AcDb2dVertex
 10
571.10383768
 20
-164.21515963
 30
0.0
  0
VERTEX
  5
557
100
AcDbEntity
  8
LE_ALL
100
AcDbVertex
100
AcDb2dVertex
 10
544.24693725
 20
-187.22036590
 30
0.0
  0
SEQEND
  5
558
100
AcDbEntity
  8
LE_ALL
  0
ELLIPSE
  5
559
100
AcDbEntity
  8
LE_ALL
100
AcDbEllipse
  6
PHANTOM
 62
     1
 10
563.56428840
 20
-210.17279265
 30
0.0
 11
19.51640737
 21
-22.78398217
 31
0.0
 40
0.85029138
 41
2.38811585
 42
3.13137019
  0
LINE
  5
55A
100
AcDbEntity
  8
LE_ALL
100
AcDbLine
  6
PHANTOM
 62
     1
 10
731.10144993
 20
-203.49102713
 30
0.0
 11
562.58529686
 21
-182.20241112
 31
0.0
  0
ELLIPSE
  5
55B
100
AcDbEntity
  8
LE_ALL
100
AcDbEllipse
  6
PHANTOM
 62
     1
 10
732.08044147
 20
-231.46140866
 30
0.0
 11
-3.76001007
 21
-29.76343939
 31
0.0
 40
0.38284826
 41
3.54199522
 42
5.07983495
  0
ELLIPSE
  5
55C
100
AcDbEntity
  8
LE_ALL
100
AcDbEllipse
  6
PHANTOM
 62
     1
 10
732.08044147
 20
-231.46140866
 30
0.0
 11
-5.86862726
 21
-29.42038773
 31
0.0
 40
0.35824972
 41
3.56840235
 42
5.10624209
  0
LINE
  5
55D
100
AcDbEntity
  8
LE_ALL
100
AcDbLine
  6
PHANTOM
 62
     1
 10
733.05943301
 20
-203.80995045
 30
0.0
 11
791.39720067
 21
-153.83871932
 31
0.0
  0
LINE
  5
55E
100
AcDbEntity
  8
LE_ALL
100
AcDbLine
  6
PHANTOM
 62
     1
 10
564.89873085
 20
-169.40233605
 30
0.0
 11
571.10383768
 21
-164.21515963
 31
0.0
  0
LINE
  5
55F
100
AcDbEntity
  8
LE_ALL
100
AcDbLine
  6
PHANTOM
 62
     1
 10
569.69532622
 20
-165.29364651
 30
0.0
 11
564.89873085
 21
-169.40233605
 31
0.0
  0
LINE
  5
560
100
AcDbEntity
  8
LE_ALL
100
AcDbLine
  6
PHANTOM
 62
     1
 10
575.90043304
 20
-160.10647009
 30
0.0
 11
569.69532622
 21
-165.29364651
 31
0.0
  0
ELLIPSE
  5
561
100
AcDbEntity
  8
LE_ALL
100
AcDbEllipse
  6
PHANTOM
 62
     1
 10
558.86129916
 20
-162.72951331
 30
0.0
 11
5.85492221
 21
-6.83519465
 31
0.0
 40
0.85029138
 41
0.03192132
 42
3.14159265
  0
ELLIPSE
  5
562
100
AcDbEntity
  8
LE_ALL
100
AcDbEllipse
  6
PHANTOM
 62
     1
 10
558.86129916
 20
-162.72951331
 30
0.0
 11
5.85492221
 21
-6.83519465
 31
0.0
 40
0.85029138
 41
3.14159265
 42
6.23081907
  0
LINE
  5
563
100
AcDbEntity
  8
LE_ALL
100
AcDbLine
  6
PHANTOM
 10
557.80297231
 20
-151.78562913
 30
0.0
 11
553.00637695
 21
-155.89431866
 31
0.0
  0
ELLIPSE
  5
564
100
AcDbEntity
  8
LE_ALL
100
AcDbEllipse
  6
PHANTOM
 62
     1
 10
563.65789452
 20
-158.62082378
 30
0.0
 11
5.85492221
 21
-6.83519465
 31
0.0
 40
0.85029138
 41
3.14159265
 42
6.23081907
  0
LINE
  5
565
100
AcDbEntity
  8
LE_ALL
100
AcDbLine
  6
PHANTOM
 10
513.47945949
 20
-225.66511299
 30
0.0
 11
509.61545649
 21
-312.86591728
 31
0.0
  0
ELLIPSE
  5
566
100
AcDbEntity
  8
LE_ALL
100
AcDbEllipse
  6
PHANTOM
 62
     1
 10
539.63704984
 20
-313.04295730
 30
0.0
 11
30.02569953
 21
0.00965989
 31
0.0
 40
0.37326872
 41
3.12493375
 42
4.30018363
  0
ELLIPSE
  5
567
100
AcDbEntity
  8
LE_ALL
100
AcDbEllipse
  6
PHANTOM
 62
     1
 10
575.38514577
 20
-199.63804645
 30
0.0
 11
19.51640737
 21
-22.78398217
 31
0.0
 40
0.85029138
 41
3.13137019
 42
3.14159265
  0
LINE
  5
568
100
AcDbEntity
  8
LE_ALL
100
AcDbLine
  6
PHANTOM
 10
583.00723524
 20
-153.60764687
 30
0.0
 11
555.86873840
 21
-176.85406428
 31
0.0
  0
ELLIPSE
  5
569
100
AcDbEntity
  8
LE_ALL
100
AcDbEllipse
  6
PHANTOM
 62
     1
 10
602.52364261
 20
-176.39162903
 30
0.0
 11
19.51640737
 21
-22.78398217
 31
0.0
 40
0.85029138
 41
3.13137019
 42
3.14159265
  0
ARC
  5
56A
100
AcDbEntity
  8
LE_ALL
100
AcDbCircle
  6
PHANTOM
 10
602.52364261
 20
-176.39162903
 30
0.0
 40
30.00000000
100
AcDbArc
 50
129.884007591
 51
130.084825708
  0
ENDBLK
  5
56B
100
AcDbEntity
  8
0
100
AcDbBlockEnd
  0
ENDSEC
  0
SECTION
  2
ENTITIES
  0
INSERT
  5
56C
100
AcDbEntity
  8
0
100
AcDbBlockReference
  2
ANS3D02_00001
 10
0.0
 20
0.0
 30
0.0
  0
INSERT
  5
56D
100
AcDbEntity
  8
0
100
AcDbBlockReference
  2
ANS3D03_00011
 10
0.0
 20
0.0
 30
0.0
  0
INSERT
  5
56E
100
AcDbEntity
  8
0
100
AcDbBlockReference
  2
ANS3D04_00021
 10
0.0
 20
0.0
 30
0.0
  0
INSERT
  5
56F
100
AcDbEntity
  8
0
100
AcDbBlockReference
  2
ANS3D05_00031
 10
0.0
 20
0.0
 30
0.0
  0
ENDSEC
  0
SECTION
  2
OBJECTS
  0
DICTIONARY
  5
C
330
0
100
AcDbDictionary
281
     1
  3
ACAD_GROUP
350
D
  3
ACAD_LAYOUT
350
19
  3
ACAD_MLINESTYLE
350
16
  0
DICTIONARY
  5
115
330
1E
100
AcDbDictionary
280
     1
281
     1
  3
ACAD_INDEX
360
116
  0
DICTIONARY
  5
D
100
AcDbDictionary
281
     1
  0
DICTIONARY
  5
19
100
AcDbDictionary
281
     1
  3
Layout1
350
1D
  3
Model
350
21
  0
DICTIONARY
  5
16
100
AcDbDictionary
281
     1
  3
Standard
350
17
  0
DICTIONARY
  5
116
100
AcDbDictionary
281
     1
  3
*A1
350
117
  0
LAYOUT
  5
1D
100
AcDbPlotSettings
  1

  2
C:\Programme\MDT\plotters\DWF Classic.pc3
  4

  6

 40
0.0
 41
0.0
 42
0.0
 43
0.0
 44
0.0
 45
0.0
 46
0.0
 47
0.0
 48
0.0
 49
0.0
140
0.0
141
0.0
142
1.0
143
1.0
 70
   688
 72
     0
 73
     0
 74
     5
  7

 75
    16
147
1.0
148
0.0
149
0.0
100
AcDbLayout
  1
Layout1
 70
     1
 71
     1
 10
0.0
 20
0.0
 11
12.0
 21
9.0
 12
0.0
 22
0.0
 32
0.0
 14
1.000000000000000E+20
 24
1.000000000000000E+20
 34
1.000000000000000E+20
 15
-1.000000000000000E+20
 25
-1.000000000000000E+20
 35
-1.000000000000000E+20
146
0.0
 13
0.0
 23
0.0
 33
0.0
 16
1.0
 26
0.0
 36
0.0
 17
0.0
 27
1.0
 37
0.0
 76
     0
330
1A
  0
LAYOUT
  5
21
100
AcDbPlotSettings
  1

  2
C:\Programme\MDT\plotters\DWF Classic.pc3
  4

  6

 40
0.0
 41
0.0
 42
0.0
 43
0.0
 44
0.0
 45
0.0
 46
0.0
 47
0.0
 48
0.0
 49
0.0
140
0.0
141
0.0
142
1.0
143
1.0
 70
  1712
 72
     0
 73
     0
 74
     0
  7

 75
     0
147
1.0
148
0.0
149
0.0
100
AcDbLayout
  1
Model
 70
     1
 71
     0
 10
0.0
 20
0.0
 11
12.0
 21
9.0
 12
0.0
 22
0.0
 32
0.0
 14
0.0
 24
0.0
 34
0.0
 15
0.0
 25
0.0
 35
0.0
146
0.0
 13
0.0
 23
0.0
 33
0.0
 16
1.0
 26
0.0
 36
0.0
 17
0.0
 27
1.0
 37
0.0
 76
     0
330
1E
  0
MLINESTYLE
  5
17
100
AcDbMlineStyle
  2
STANDARD
 70
     0
  3

 62
   256
 51
90.0
 52
90.0
 71
     2
 49
0.5
 62
   256
  6
BYLAYER
 49
-0.5
 62
   256
  6
BYLAYER
  0
ACDBPLACEHOLDER
  5
F
  0
XRECORD
  5
129
100
AcDbXrecord
280
     1
 90
        0
  0
XRECORD
  5
12A
100
AcDbXrecord
280
     1
  1
{46C4153B-0B27-49FA-99B6-AF3E057D65BC}
  0
XRECORD
  5
122
100
AcDbXrecord
280
     1
  1

  0
XRECORD
  5
128
100
AcDbXrecord
280
     1
 90
        0
  0
XRECORD
  5
124
100
AcDbXrecord
280
     1
340
19
  0
XRECORD
  5
127
100
AcDbXrecord
280
     1
 90
    10781
  0
XRECORD
  5
125
100
AcDbXrecord
280
     1
340
18
  0
XRECORD
  5
126
100
AcDbXrecord
280
     1
340
E
  0
XRECORD
  5
12C
100
AcDbXrecord
280
     1
 40
0.0
  0
XRECORD
  5
12F
100
AcDbXrecord
280
     1
340
0
  0
XRECORD
  5
135
100
AcDbXrecord
280
     1
 10
0.0
 20
0.0
 30
0.0
  0
XRECORD
  5
131
100
AcDbXrecord
280
     1
 10
0.0
 20
0.0
 30
0.0
  0
XRECORD
  5
134
100
AcDbXrecord
280
     1
 10
0.0
 20
0.0
 30
0.0
  0
XRECORD
  5
132
100
AcDbXrecord
280
     1
 10
0.0
 20
0.0
 30
0.0
  0
XRECORD
  5
133
100
AcDbXrecord
280
     1
 10
0.0
 20
0.0
 30
0.0
  0
XRECORD
  5
130
100
AcDbXrecord
280
     1
 10
0.0
 20
0.0
 30
0.0
  0
XRECORD
  5
12D
100
AcDbXrecord
280
     1
340
0
  0
XRECORD
  5
12E
100
AcDbXrecord
280
     1
 70
     0
  0
XRECORD
  5
123
100
AcDbXrecord
280
     1
  1

  0
XRECORD
  5
120
100
AcDbXrecord
280
     1
 90
        1
  0
XRECORD
  5
121
100
AcDbXrecord
280
     1
 90
       70
  0
XRECORD
  5
138
100
AcDbXrecord
280
     1
340
0
  0
XRECORD
  5
13E
100
AcDbXrecord
280
     1
 10
0.0
 20
0.0
 30
0.0
  0
XRECORD
  5
13A
100
AcDbXrecord
280
     1
 10
0.0
 20
0.0
 30
0.0
  0
XRECORD
  5
13D
100
AcDbXrecord
280
     1
 10
0.0
 20
0.0
 30
0.0
  0
XRECORD
  5
13B
100
AcDbXrecord
280
     1
 10
0.0
 20
0.0
 30
0.0
  0
XRECORD
  5
13C
100
AcDbXrecord
280
     1
 10
0.0
 20
0.0
 30
0.0
  0
XRECORD
  5
139
100
AcDbXrecord
280
     1
 10
0.0
 20
0.0
 30
0.0
  0
XRECORD
  5
136
100
AcDbXrecord
280
     1
340
0
  0
XRECORD
  5
137
100
AcDbXrecord
280
     1
 70
     0
  0
XRECORD
  5
12B
100
AcDbXrecord
280
     1
  1
{09700D79-BD6A-4B2C-8A65-8ED4ED61BA28}
  0
DICTIONARYVAR
  5
11D
100
DictionaryVariables
280
     0
  1
1
  0
ENDSEC
  0
EOF
