999
NT  : - 1800
  0
SECTION
  2
HEADER
  9
$ACADVER
  1
AC1015
  9
$DWGCODEPAGE
  3
ANSI_1252
  9
$INSBASE
 10
0.0
 20
0.0
 30
0.0
  9
$EXTMIN
 10
-944.80244661
 20
-791.17614915
 30
0.0
  9
$EXTMAX
 10
1762.10467941
 20
590.17124588
 30
0.0
  9
$LIMMIN
 10
-944.80244661
 20
-791.17614915
  9
$LIMMAX
 10
1762.10467941
 20
590.17124588
  9
$FILLMODE
 70
     1
  9
$QTEXTMODE
 70
     0
  9
$LTSCALE
 40
1.0
  9
$ATTMODE
 70
     1
  9
$TEXTSTYLE
  7
Standard
  9
$LUNITS
 70
     2
  9
$LUPREC
 70
     4
  9
$AUNITS
 70
     0
  9
$AUPREC
 70
     0
  9
$ANGBASE
 50
0.0
  9
$ANGDIR
 70
     0
  9
$HANDSEED
  5
547
  9
$TILEMODE
 70
     1
  9
$VISRETAIN
 70
     0
  9
$MEASUREMENT
 70
     1
  0
ENDSEC
  0
SECTION
  2
CLASSES
  0
ENDSEC
  0
SECTION
  2
TABLES
  0
TABLE
  2
VPORT
  5
1
100
AcDbSymbolTable
 70
     1
  0
VPORT
  5
2
100
AcDbSymbolTableRecord
100
AcDbViewportTableRecord
  2
*Active
 70
     0
 10
0.0
 20
0.0
 11
1.0
 21
1.0
 12
408.65111640
 22
-100.50245164
 13
0.0
 23
0.0
 14
1.0
 24
1.0
 15
0.0
 25
0.0
 16
0.0
 26
0.0
 36
1.0
 17
0.0
 27
0.0
 37
0.0
 40
1381.347395033
 41
1.959613589
 42
50.0
 43
0.0
 44
0.0
 50
0.0
 51
0.0
 71
     0
 72
   100
 73
     1
 74
     1
 75
     0
 76
     0
 77
     0
 78
     0
  0
ENDTAB
  0
TABLE
  2
LTYPE
  5
3
100
AcDbSymbolTable
 70
    21
  0
LTYPE
  5
4
100
AcDbSymbolTableRecord
100
AcDbLinetypeTableRecord
  2
ByBlock
 70
    64
  3

 72
    65
 73
     0
 40
0.0
  0
LTYPE
  5
5
100
AcDbSymbolTableRecord
100
AcDbLinetypeTableRecord
  2
ByLayer
 70
    64
  3

 72
    65
 73
     0
 40
0.0
  0
LTYPE
  5
6
100
AcDbSymbolTableRecord
100
AcDbLinetypeTableRecord
  2
CONTINUOUS
 70
    64
  3
Solid line
 72
    65
 73
     0
 40
0.0
  0
LTYPE
  5
7
100
AcDbSymbolTableRecord
100
AcDbLinetypeTableRecord
  2
DOT
 70
    64
  3
..............
 72
    65
 73
     2
 40
2.000
 49
0.500
 74
     0
 49
-1.500
 74
     0
  0
LTYPE
  5
8
100
AcDbSymbolTableRecord
100
AcDbLinetypeTableRecord
  2
HIDDEN
 70
    64
  3
-- -- -- -- --
 72
    65
 73
     2
 40
7.000
 49
4.000
 74
     0
 49
-3.000
 74
     0
  0
LTYPE
  5
9
100
AcDbSymbolTableRecord
100
AcDbLinetypeTableRecord
  2
DASHDOT
 70
    64
  3
--.--.--.--.--
 72
    65
 73
     4
 40
8.500
 49
4.000
 74
     0
 49
-2.000
 74
     0
 49
0.500
 74
     0
 49
-2.000
 74
     0
  0
LTYPE
  5
A
100
AcDbSymbolTableRecord
100
AcDbLinetypeTableRecord
  2
STRICHPUNKT2
 70
    64
  3
--.--.--.--.--
 72
    65
 73
     4
 40
18.500
 49
10.000
 74
     0
 49
-4.000
 74
     0
 49
0.500
 74
     0
 49
-4.000
 74
     0
  0
LTYPE
  5
B
100
AcDbSymbolTableRecord
100
AcDbLinetypeTableRecord
  2
STRICHPUNKT3
 70
    64
  3
--.--.--.--.--
 72
    65
 73
     4
 40
35.500
 49
25.000
 74
     0
 49
-5.000
 74
     0
 49
0.500
 74
     0
 49
-5.000
 74
     0
  0
LTYPE
  5
13F
100
AcDbSymbolTableRecord
100
AcDbLinetypeTableRecord
  2
PHANTOM
 70
    64
  3
--..--..--..--
 72
    65
 73
     6
 40
23.000
 49
10.000
 74
     0
 49
-4.000
 74
     0
 49
0.500
 74
     0
 49
-4.000
 74
     0
 49
0.500
 74
     0
 49
-4.000
 74
     0
  0
LTYPE
  5
140
100
AcDbSymbolTableRecord
100
AcDbLinetypeTableRecord
  2
PHANTOM2
 70
    64
  3
--..--..--..--
 72
    65
 73
     6
 40
33.000
 49
20.000
 74
     0
 49
-4.000
 74
     0
 49
0.500
 74
     0
 49
-4.000
 74
     0
 49
0.500
 74
     0
 49
-4.000
 74
     0
  0
LTYPE
  5
141
100
AcDbSymbolTableRecord
100
AcDbLinetypeTableRecord
  2
PHANTOM3
 70
    64
  3
--..--..--..--
 72
    65
 73
     6
 40
50.000
 49
37.000
 74
     0
 49
-4.000
 74
     0
 49
0.500
 74
     0
 49
-4.000
 74
     0
 49
0.500
 74
     0
 49
-4.000
 74
     0
  0
LTYPE
  5
142
100
AcDbSymbolTableRecord
100
AcDbLinetypeTableRecord
  2
STR3PKT
 70
    64
  3
--...--...--...
 72
    65
 73
     8
 40
31.500
 49
20.000
 74
     0
 49
-2.500
 74
     0
 49
0.500
 74
     0
 49
-2.500
 74
     0
 49
0.500
 74
     0
 49
-2.500
 74
     0
 49
0.500
 74
     0
 49
-2.500
 74
     0
  0
LTYPE
  5
143
100
AcDbSymbolTableRecord
100
AcDbLinetypeTableRecord
  2
2STRPKT
 70
    64
  3
--.--.--.--.--
 72
    65
 73
     6
 40
28.000
 49
10.000
 74
     0
 49
-2.500
 74
     0
 49
10.000
 74
     0
 49
-2.500
 74
     0
 49
0.500
 74
     0
 49
-2.500
 74
     0
  0
LTYPE
  5
144
100
AcDbSymbolTableRecord
100
AcDbLinetypeTableRecord
  2
GESTRICHELT2
 70
    64
  3
-- -- -- -- --
 72
    65
 73
     2
 40
25.000
 49
10.000
 74
     0
 49
-15.000
 74
     0
  0
LTYPE
  5
145
100
AcDbSymbolTableRecord
100
AcDbLinetypeTableRecord
  2
2STR2PKT
 70
    64
  3
--..--..--..--
 72
    65
 73
     8
 40
31.000
 49
10.000
 74
     0
 49
-2.500
 74
     0
 49
10.000
 74
     0
 49
-2.500
 74
     0
 49
0.500
 74
     0
 49
-2.500
 74
     0
 49
0.500
 74
     0
 49
-2.500
 74
     0
  0
LTYPE
  5
146
100
AcDbSymbolTableRecord
100
AcDbLinetypeTableRecord
  2
STR3PKT2
 70
    64
  3
--...--...--...
 72
    65
 73
     8
 40
21.000
 49
10.000
 74
     0
 49
-2.500
 74
     0
 49
0.500
 74
     0
 49
-2.500
 74
     0
 49
0.500
 74
     0
 49
-2.500
 74
     0
 49
0.500
 74
     0
 49
-2.000
 74
     0
  0
LTYPE
  5
147
100
AcDbSymbolTableRecord
100
AcDbLinetypeTableRecord
  2
2STR3PKT
 70
    64
  3
--...--...--...
 72
    65
 73
    10
 40
34.000
 49
10.000
 74
     0
 49
-2.500
 74
     0
 49
10.000
 74
     0
 49
-2.500
 74
     0
 49
0.500
 74
     0
 49
-2.500
 74
     0
 49
0.500
 74
     0
 49
-2.500
 74
     0
 49
0.500
 74
     0
 49
-2.500
 74
     0
  0
LTYPE
  5
148
100
AcDbSymbolTableRecord
100
AcDbLinetypeTableRecord
  2
STRKSTR
 70
    64
  3
-- - -- - -- -
 72
    65
 73
     4
 40
30.000
 49
20.000
 74
     0
 49
-2.500
 74
     0
 49
5.000
 74
     0
 49
-2.500
 74
     0
  0
LTYPE
  5
149
100
AcDbSymbolTableRecord
100
AcDbLinetypeTableRecord
  2
STRKSTR2
 70
    64
  3
-- - -- - -- -
 72
    65
 73
     6
 40
37.500
 49
20.000
 74
     0
 49
-2.500
 74
     0
 49
5.000
 74
     0
 49
-2.500
 74
     0
 49
5.000
 74
     0
 49
-2.500
 74
     0
  0
LTYPE
  5
14A
100
AcDbSymbolTableRecord
100
AcDbLinetypeTableRecord
  2
STRKSTR3
 70
    64
  3
-- - -- - -- -
 72
    65
 73
     8
 40
45.000
 49
20.000
 74
     0
 49
-2.500
 74
     0
 49
5.000
 74
     0
 49
-2.500
 74
     0
 49
5.000
 74
     0
 49
-2.500
 74
     0
 49
5.000
 74
     0
 49
-2.500
 74
     0
  0
LTYPE
  5
14B
100
AcDbSymbolTableRecord
100
AcDbLinetypeTableRecord
  2
PUNKT2
 70
    64
  3
..............
 72
    65
 73
     2
 40
3.500
 49
0.500
 74
     0
 49
-3.000
 74
     0
  0
ENDTAB
  0
TABLE
  2
LAYER
  5
14C
100
AcDbSymbolTable
 70
    15
  0
LAYER
  5
14D
100
AcDbSymbolTableRecord
100
AcDbLayerTableRecord
  2
0
 70
    64
 62
     7
  6
CONTINUOUS
370
    -3
390
F
  0
LAYER
  5
14E
100
AcDbSymbolTableRecord
100
AcDbLayerTableRecord
  2
LE_GREEN
 70
    64
 62
     3
  6
CONTINUOUS
370
    -3
390
F
  0
LAYER
  5
14F
100
AcDbSymbolTableRecord
100
AcDbLayerTableRecord
  2
LE_RED
 70
    64
 62
     1
  6
CONTINUOUS
370
    -3
390
F
  0
LAYER
  5
150
100
AcDbSymbolTableRecord
100
AcDbLayerTableRecord
  2
LE_ALL
 70
    64
 62
     7
  6
CONTINUOUS
370
    50
390
F
  0
LAYER
  5
151
100
AcDbSymbolTableRecord
100
AcDbLayerTableRecord
  2
LE_HIDDEN1
 70
    64
 62
     3
  6
HIDDEN
370
    -3
390
F
  0
LAYER
  5
152
100
AcDbSymbolTableRecord
100
AcDbLayerTableRecord
  2
LE_HIDDEN
 70
    64
 62
     7
  6
CONTINUOUS
370
    -3
390
F
  0
LAYER
  5
153
100
AcDbSymbolTableRecord
100
AcDbLayerTableRecord
  2
LE_MIDDLE
 70
    64
 62
     7
  6
CONTINUOUS
370
    -3
390
F
  0
LAYER
  5
154
100
AcDbSymbolTableRecord
100
AcDbLayerTableRecord
  2
TXT_YELLOW
 70
    64
 62
     2
  6
CONTINUOUS
370
    -3
390
F
  0
LAYER
  5
155
100
AcDbSymbolTableRecord
100
AcDbLayerTableRecord
  2
TXT_DIM49
 70
    64
 62
     2
  6
CONTINUOUS
370
    -3
390
F
  0
LAYER
  5
156
100
AcDbSymbolTableRecord
100
AcDbLayerTableRecord
  2
TXT_ALL
 70
    64
 62
     7
  6
CONTINUOUS
370
    -3
390
F
  0
LAYER
  5
157
100
AcDbSymbolTableRecord
100
AcDbLayerTableRecord
  2
DIM49
 70
    64
 62
     4
  6
CONTINUOUS
370
    -3
390
F
  0
LAYER
  5
158
100
AcDbSymbolTableRecord
100
AcDbLayerTableRecord
  2
HATCH
 70
    64
 62
     3
  6
CONTINUOUS
370
    -3
390
F
  0
LAYER
  5
159
100
AcDbSymbolTableRecord
100
AcDbLayerTableRecord
  2
1
 70
    64
 62
     7
  6
CONTINUOUS
370
    -3
390
F
  0
LAYER
  5
15A
100
AcDbSymbolTableRecord
100
AcDbLayerTableRecord
  2
40
 70
    64
 62
     7
  6
CONTINUOUS
370
    -3
390
F
  0
LAYER
  5
15B
100
AcDbSymbolTableRecord
100
AcDbLayerTableRecord
  2
49
 70
    64
 62
     7
  6
CONTINUOUS
370
    -3
390
F
  0
ENDTAB
  0
TABLE
  2
STYLE
  5
15C
100
AcDbSymbolTable
 70
     2
  0
STYLE
  5
15D
100
AcDbSymbolTableRecord
100
AcDbTextStyleTableRecord
  2
MONOTXT
 70
     0
 40
0.0
 41
1.000
 50
0.0
 71
     0
 42
1.000
  3
monotxt.shx
  4

  0
STYLE
  5
15E
100
AcDbSymbolTableRecord
100
AcDbTextStyleTableRecord
  2
STANDARD
 70
     0
 40
0.0
 41
1.000
 50
0.0
 71
     0
 42
1.000
  3
txt
  4

  0
ENDTAB
  0
TABLE
  2
VIEW
  5
15F
100
AcDbSymbolTable
 70
     0
  0
ENDTAB
  0
TABLE
  2
UCS
  5
160
100
AcDbSymbolTable
 70
     0
  0
ENDTAB
  0
TABLE
  2
APPID
  5
161
100
AcDbSymbolTable
 70
     1
  0
APPID
  5
162
100
AcDbSymbolTableRecord
100
AcDbRegAppTableRecord
  2
ACAD
 70
     0
  0
ENDTAB
  0
TABLE
  2
DIMSTYLE
  5
163
100
AcDbSymbolTable
100
AcDbDimStyleTable
 70
     0
  0
ENDTAB
  0
TABLE
  2
BLOCK_RECORD
  5
164
100
AcDbSymbolTable
 70
    42
  0
BLOCK_RECORD
  5
1E
100
AcDbSymbolTableRecord
100
AcDbBlockTableRecord
  2
*Model_Space
  0
BLOCK_RECORD
  5
1A
100
AcDbSymbolTableRecord
100
AcDbBlockTableRecord
  2
*Paper_Space
  0
BLOCK_RECORD
  5
165
100
AcDbSymbolTableRecord
100
AcDbBlockTableRecord
  2
ANS3D02_00001
  0
BLOCK_RECORD
  5
166
100
AcDbSymbolTableRecord
100
AcDbBlockTableRecord
  2
FIG3D02_00002
  0
BLOCK_RECORD
  5
167
100
AcDbSymbolTableRecord
100
AcDbBlockTableRecord
  2
FROM3D_00003
  0
BLOCK_RECORD
  5
168
100
AcDbSymbolTableRecord
100
AcDbBlockTableRecord
  2
FROM3D_00004
  0
BLOCK_RECORD
  5
169
100
AcDbSymbolTableRecord
100
AcDbBlockTableRecord
  2
FROM3D_00005
  0
BLOCK_RECORD
  5
16A
100
AcDbSymbolTableRecord
100
AcDbBlockTableRecord
  2
FROM3D_00006
  0
BLOCK_RECORD
  5
16B
100
AcDbSymbolTableRecord
100
AcDbBlockTableRecord
  2
FROM3D_00007
  0
BLOCK_RECORD
  5
16C
100
AcDbSymbolTableRecord
100
AcDbBlockTableRecord
  2
FROM3D_00008
  0
BLOCK_RECORD
  5
16D
100
AcDbSymbolTableRecord
100
AcDbBlockTableRecord
  2
FROM3D_00009
  0
BLOCK_RECORD
  5
16E
100
AcDbSymbolTableRecord
100
AcDbBlockTableRecord
  2
FROM3D_00010
  0
BLOCK_RECORD
  5
16F
100
AcDbSymbolTableRecord
100
AcDbBlockTableRecord
  2
ANS3D03_00011
  0
BLOCK_RECORD
  5
170
100
AcDbSymbolTableRecord
100
AcDbBlockTableRecord
  2
FIG3D03_00012
  0
BLOCK_RECORD
  5
171
100
AcDbSymbolTableRecord
100
AcDbBlockTableRecord
  2
FROM3D_00013
  0
BLOCK_RECORD
  5
172
100
AcDbSymbolTableRecord
100
AcDbBlockTableRecord
  2
FROM3D_00014
  0
BLOCK_RECORD
  5
173
100
AcDbSymbolTableRecord
100
AcDbBlockTableRecord
  2
FROM3D_00015
  0
BLOCK_RECORD
  5
174
100
AcDbSymbolTableRecord
100
AcDbBlockTableRecord
  2
FROM3D_00016
  0
BLOCK_RECORD
  5
175
100
AcDbSymbolTableRecord
100
AcDbBlockTableRecord
  2
FROM3D_00017
  0
BLOCK_RECORD
  5
176
100
AcDbSymbolTableRecord
100
AcDbBlockTableRecord
  2
FROM3D_00018
  0
BLOCK_RECORD
  5
177
100
AcDbSymbolTableRecord
100
AcDbBlockTableRecord
  2
FROM3D_00019
  0
BLOCK_RECORD
  5
178
100
AcDbSymbolTableRecord
100
AcDbBlockTableRecord
  2
FROM3D_00020
  0
BLOCK_RECORD
  5
179
100
AcDbSymbolTableRecord
100
AcDbBlockTableRecord
  2
ANS3D04_00021
  0
BLOCK_RECORD
  5
17A
100
AcDbSymbolTableRecord
100
AcDbBlockTableRecord
  2
FIG3D04_00022
  0
BLOCK_RECORD
  5
17B
100
AcDbSymbolTableRecord
100
AcDbBlockTableRecord
  2
FROM3D_00023
  0
BLOCK_RECORD
  5
17C
100
AcDbSymbolTableRecord
100
AcDbBlockTableRecord
  2
FROM3D_00024
  0
BLOCK_RECORD
  5
17D
100
AcDbSymbolTableRecord
100
AcDbBlockTableRecord
  2
FROM3D_00025
  0
BLOCK_RECORD
  5
17E
100
AcDbSymbolTableRecord
100
AcDbBlockTableRecord
  2
FROM3D_00026
  0
BLOCK_RECORD
  5
17F
100
AcDbSymbolTableRecord
100
AcDbBlockTableRecord
  2
FROM3D_00027
  0
BLOCK_RECORD
  5
180
100
AcDbSymbolTableRecord
100
AcDbBlockTableRecord
  2
FROM3D_00028
  0
BLOCK_RECORD
  5
181
100
AcDbSymbolTableRecord
100
AcDbBlockTableRecord
  2
FROM3D_00029
  0
BLOCK_RECORD
  5
182
100
AcDbSymbolTableRecord
100
AcDbBlockTableRecord
  2
FROM3D_00030
  0
BLOCK_RECORD
  5
183
100
AcDbSymbolTableRecord
100
AcDbBlockTableRecord
  2
ANS3D05_00031
  0
BLOCK_RECORD
  5
184
100
AcDbSymbolTableRecord
100
AcDbBlockTableRecord
  2
FIG3D05_00032
  0
BLOCK_RECORD
  5
185
100
AcDbSymbolTableRecord
100
AcDbBlockTableRecord
  2
FROM3D_00033
  0
BLOCK_RECORD
  5
186
100
AcDbSymbolTableRecord
100
AcDbBlockTableRecord
  2
FROM3D_00034
  0
BLOCK_RECORD
  5
187
100
AcDbSymbolTableRecord
100
AcDbBlockTableRecord
  2
FROM3D_00035
  0
BLOCK_RECORD
  5
188
100
AcDbSymbolTableRecord
100
AcDbBlockTableRecord
  2
FROM3D_00036
  0
BLOCK_RECORD
  5
189
100
AcDbSymbolTableRecord
100
AcDbBlockTableRecord
  2
FROM3D_00037
  0
BLOCK_RECORD
  5
18A
100
AcDbSymbolTableRecord
100
AcDbBlockTableRecord
  2
FROM3D_00038
  0
BLOCK_RECORD
  5
18B
100
AcDbSymbolTableRecord
100
AcDbBlockTableRecord
  2
FROM3D_00039
  0
BLOCK_RECORD
  5
18C
100
AcDbSymbolTableRecord
100
AcDbBlockTableRecord
  2
FROM3D_00040
  0
ENDTAB
  0
ENDSEC
  0
SECTION
  2
BLOCKS
  0
BLOCK
  5
18D
100
AcDbEntity
  8
0
100
AcDbBlockBegin
  2
*Model_Space
 70
     0
 10
0.0
 20
0.0
 30
0.0
  3
*Model_Space
  1

  0
ENDBLK
  5
18E
100
AcDbEntity
  8
0
100
AcDbBlockEnd
  0
BLOCK
  5
18F
100
AcDbEntity
100
AcDbBlockBegin
 67
     1
  8
0
  2
*Paper_Space
 70
     0
 10
0.0
 20
0.0
 30
0.0
  3
*Paper_Space
  1

  0
ENDBLK
  5
190
100
AcDbEntity
100
AcDbBlockEnd
 67
     1
  8
0
  0
BLOCK
  5
191
100
AcDbEntity
  8
0
100
AcDbBlockBegin
  2
ANS3D02_00001
 70
    64
 10
0.0
 20
0.0
 30
0.0
  3
ANS3D02_00001
  0
INSERT
  5
192
100
AcDbEntity
  8
0
100
AcDbBlockReference
  2
FIG3D02_00002
 10
0.0
 20
0.0
 30
0.0
  0
ENDBLK
  5
193
100
AcDbEntity
  8
0
100
AcDbBlockEnd
  0
BLOCK
  5
194
100
AcDbEntity
  8
0
100
AcDbBlockBegin
  2
FIG3D02_00002
 70
    64
 10
0.0
 20
0.0
 30
0.0
  3
FIG3D02_00002
  0
INSERT
  5
195
100
AcDbEntity
  8
0
100
AcDbBlockReference
  2
FROM3D_00003
 10
0.0
 20
0.0
 30
0.0
  0
ENDBLK
  5
196
100
AcDbEntity
  8
0
100
AcDbBlockEnd
  0
BLOCK
  5
197
100
AcDbEntity
  8
0
100
AcDbBlockBegin
  2
FROM3D_00003
 70
    64
 10
0.0
 20
0.0
 30
0.0
  3
FROM3D_00003
  0
INSERT
  5
198
100
AcDbEntity
  8
0
100
AcDbBlockReference
  2
FROM3D_00004
 10
0.0
 20
0.0
 30
0.0
  0
INSERT
  5
199
100
AcDbEntity
  8
0
100
AcDbBlockReference
  2
FROM3D_00009
 10
0.0
 20
0.0
 30
0.0
  0
ENDBLK
  5
19A
100
AcDbEntity
  8
0
100
AcDbBlockEnd
  0
BLOCK
  5
19B
100
AcDbEntity
  8
0
100
AcDbBlockBegin
  2
FROM3D_00004
 70
    64
 10
0.0
 20
0.0
 30
0.0
  3
FROM3D_00004
  0
INSERT
  5
19C
100
AcDbEntity
  8
0
100
AcDbBlockReference
  2
FROM3D_00005
 10
0.0
 20
0.0
 30
0.0
  0
INSERT
  5
19D
100
AcDbEntity
  8
0
100
AcDbBlockReference
  2
FROM3D_00007
 10
0.0
 20
0.0
 30
0.0
  0
ENDBLK
  5
19E
100
AcDbEntity
  8
0
100
AcDbBlockEnd
  0
BLOCK
  5
19F
100
AcDbEntity
  8
0
100
AcDbBlockBegin
  2
FROM3D_00005
 70
    64
 10
0.0
 20
0.0
 30
0.0
  3
FROM3D_00005
  0
INSERT
  5
1A0
100
AcDbEntity
  8
0
100
AcDbBlockReference
  2
FROM3D_00006
 10
-0.82392587
 20
74.62862436
 30
0.0
  0
ENDBLK
  5
1A1
100
AcDbEntity
  8
0
100
AcDbBlockEnd
  0
BLOCK
  5
1A2
100
AcDbEntity
  8
0
100
AcDbBlockBegin
  2
FROM3D_00006
 70
    64
 10
-0.82392587
 20
74.62862436
 30
0.0
  3
FROM3D_00006
  0
LINE
  5
1A3
100
AcDbEntity
  8
0
100
AcDbLine
 10
-0.82392587
 20
74.62862436
 30
0.0
 11
-124.82380380
 21
74.62862436
 31
0.0
  0
LINE
  5
1A4
100
AcDbEntity
  8
0
100
AcDbLine
 10
-124.82380380
 20
79.62862436
 30
0.0
 11
-124.82380380
 21
74.62862436
 31
0.0
  0
LINE
  5
1A5
100
AcDbEntity
  8
0
100
AcDbLine
 10
-124.82380380
 20
79.62862436
 30
0.0
 11
-0.82392587
 21
79.62862436
 31
0.0
  0
POLYLINE
  5
1A6
100
AcDbEntity
  8
0
100
AcDb2dPolyline
 66
     1
  0
VERTEX
  5
1A7
100
AcDbEntity
  8
0
100
AcDbVertex
100
AcDb2dVertex
 10
14.17607282
 20
-0.37137564
 30
0.0
  0
VERTEX
  5
1A8
100
AcDbEntity
  8
0
100
AcDbVertex
100
AcDb2dVertex
 10
14.17607228
 20
-3.37137564
 30
0.0
  0
VERTEX
  5
1A9
100
AcDbEntity
  8
0
100
AcDbVertex
100
AcDb2dVertex
 10
-30.82392772
 20
-3.37137564
 30
0.0
  0
SEQEND
  5
1AA
100
AcDbEntity
  8
0
  0
LINE
  5
1AB
100
AcDbEntity
  8
0
100
AcDbLine
 10
-30.82392772
 20
14.62853055
 30
0.0
 11
-30.82392772
 21
-3.37137564
 31
0.0
  0
LINE
  5
1AC
100
AcDbEntity
  8
0
100
AcDbLine
 10
-0.82393567
 20
14.62862436
 30
0.0
 11
-30.82392772
 21
14.62853055
 31
0.0
  0
LINE
  5
1AD
100
AcDbEntity
  8
0
100
AcDbLine
 10
186.17606944
 20
-0.37137564
 30
0.0
 11
129.17605667
 21
-0.37137564
 31
0.0
  0
LINE
  5
1AE
100
AcDbEntity
  8
0
100
AcDbLine
 10
-109.82384085
 20
74.62862436
 30
0.0
 11
-109.82384085
 21
-0.37137564
 31
0.0
  0
LINE
  5
1AF
100
AcDbEntity
  8
0
100
AcDbLine
 10
-30.82393781
 20
-0.37137564
 30
0.0
 11
-109.82384085
 21
-0.37137564
 31
0.0
  0
POLYLINE
  5
1B0
100
AcDbEntity
  8
0
100
AcDb2dPolyline
 66
     1
  0
VERTEX
  5
1B1
100
AcDbEntity
  8
0
100
AcDbVertex
100
AcDb2dVertex
 10
310.17615915
 20
74.62862436
 30
0.0
  0
VERTEX
  5
1B2
100
AcDbEntity
  8
0
100
AcDbVertex
100
AcDb2dVertex
 10
310.17615915
 20
-0.37137564
 30
0.0
  0
VERTEX
  5
1B3
100
AcDbEntity
  8
0
100
AcDbVertex
100
AcDb2dVertex
 10
231.17606219
 20
-0.37137564
 30
0.0
  0
SEQEND
  5
1B4
100
AcDbEntity
  8
0
  0
POLYLINE
  5
1B5
100
AcDbEntity
  8
0
100
AcDb2dPolyline
 66
     1
  0
VERTEX
  5
1B6
100
AcDbEntity
  8
0
100
AcDbVertex
100
AcDb2dVertex
 10
-0.82391182
 20
79.62862436
 30
0.0
  0
VERTEX
  5
1B7
100
AcDbEntity
  8
0
100
AcDbVertex
100
AcDb2dVertex
 10
129.17608818
 20
79.62862436
 30
0.0
  0
VERTEX
  5
1B8
100
AcDbEntity
  8
0
100
AcDbVertex
100
AcDb2dVertex
 10
129.17608818
 20
-0.37137564
 30
0.0
  0
SEQEND
  5
1B9
100
AcDbEntity
  8
0
  0
LINE
  5
1BA
100
AcDbEntity
  8
0
100
AcDbLine
 10
-0.82391182
 20
-0.37137564
 30
0.0
 11
129.17608818
 21
-0.37137564
 31
0.0
  0
LINE
  5
1BB
100
AcDbEntity
  8
0
100
AcDbLine
 10
-0.82391182
 20
79.62862436
 30
0.0
 11
-0.82391182
 21
-0.37137564
 31
0.0
  0
LINE
  5
1BC
100
AcDbEntity
  8
0
100
AcDbLine
 10
201.17607550
 20
14.62925598
 30
0.0
 11
186.17607228
 21
14.62864508
 31
0.0
  0
LINE
  5
1BD
100
AcDbEntity
  8
0
100
AcDbLine
 10
186.17607591
 20
74.62862436
 30
0.0
 11
186.17607228
 21
14.62864508
 31
0.0
  0
LINE
  5
1BE
100
AcDbEntity
  8
0
100
AcDbLine
 10
201.17608239
 20
74.62862436
 30
0.0
 11
186.17607591
 21
74.62862436
 31
0.0
  0
LINE
  5
1BF
100
AcDbEntity
  8
0
100
AcDbLine
 10
201.17607550
 20
14.62925598
 30
0.0
 11
201.17608239
 21
74.62862436
 31
0.0
  0
LINE
  5
1C0
100
AcDbEntity
  8
0
100
AcDbLine
 10
231.17607228
 20
14.62934979
 30
0.0
 11
201.17607550
 21
14.62925598
 31
0.0
  0
POLYLINE
  5
1C1
100
AcDbEntity
  8
0
100
AcDb2dPolyline
 66
     1
  0
VERTEX
  5
1C2
100
AcDbEntity
  8
0
100
AcDbVertex
100
AcDb2dVertex
 10
231.17607228
 20
14.62934979
 30
0.0
  0
VERTEX
  5
1C3
100
AcDbEntity
  8
0
100
AcDbVertex
100
AcDb2dVertex
 10
231.17607228
 20
-3.37137564
 30
0.0
  0
VERTEX
  5
1C4
100
AcDbEntity
  8
0
100
AcDbVertex
100
AcDb2dVertex
 10
186.17607228
 20
-3.37137564
 30
0.0
  0
SEQEND
  5
1C5
100
AcDbEntity
  8
0
  0
LINE
  5
1C6
100
AcDbEntity
  8
0
100
AcDbLine
 10
186.17607228
 20
14.62864508
 30
0.0
 11
186.17607228
 21
-3.37137564
 31
0.0
  0
LINE
  5
1C7
100
AcDbEntity
  8
0
100
AcDbLine
 10
325.17595206
 20
74.62862436
 30
0.0
 11
201.17608239
 21
74.62862436
 31
0.0
  0
LINE
  5
1C8
100
AcDbEntity
  8
0
100
AcDbLine
 10
325.17595206
 20
79.62862436
 30
0.0
 11
325.17595206
 21
74.62862436
 31
0.0
  0
LINE
  5
1C9
100
AcDbEntity
  8
0
100
AcDbLine
 10
129.17607413
 20
79.62862436
 30
0.0
 11
325.17595206
 21
79.62862436
 31
0.0
  0
LINE
  5
1CA
100
AcDbEntity
  8
0
100
AcDbLine
 10
186.17607591
 20
74.62862436
 30
0.0
 11
129.17607413
 21
74.62862436
 31
0.0
  0
ENDBLK
  5
1CB
100
AcDbEntity
  8
0
100
AcDbBlockEnd
  0
BLOCK
  5
1CC
100
AcDbEntity
  8
0
100
AcDbBlockBegin
  2
FROM3D_00007
 70
    64
 10
0.0
 20
0.0
 30
0.0
  3
FROM3D_00007
  0
INSERT
  5
1CD
100
AcDbEntity
  8
0
100
AcDbBlockReference
  2
FROM3D_00008
 10
295.67399893
 20
345.02047006
 30
0.0
  0
ENDBLK
  5
1CE
100
AcDbEntity
  8
0
100
AcDbBlockEnd
  0
BLOCK
  5
1CF
100
AcDbEntity
  8
0
100
AcDbBlockBegin
  2
FROM3D_00008
 70
    64
 10
295.67399893
 20
345.02047006
 30
0.0
  3
FROM3D_00008
  0
CIRCLE
  5
1D0
100
AcDbEntity
  8
0
100
AcDbCircle
 10
295.67399893
 20
338.02047006
 30
0.0
 40
7.00000000
  0
LINE
  5
1D1
100
AcDbEntity
  8
0
100
AcDbLine
 10
308.10771714
 20
298.27707511
 30
0.0
 11
310.77690002
 21
333.86422953
 31
0.0
  0
ARC
  5
1D2
100
AcDbEntity
  8
0
100
AcDbCircle
 10
292.82731925
 20
335.21041147
 30
0.0
 40
17.99999044
100
AcDbArc
 50
-4.289037087
 51
93.549864520
  0
LINE
  5
1D3
100
AcDbEntity
  8
0
100
AcDbLine
 10
291.71281036
 20
353.17586514
 30
0.0
 11
255.77022781
 21
350.94612309
 31
0.0
  0
CIRCLE
  5
1D4
100
AcDbEntity
  8
0
100
AcDbCircle
 10
-95.32185068
 20
338.02047006
 30
0.0
 40
7.00000000
  0
LINE
  5
1D5
100
AcDbEntity
  8
0
100
AcDbLine
 10
-91.36066211
 20
353.17586514
 30
0.0
 11
-55.41807956
 21
350.94612309
 31
0.0
  0
ARC
  5
1D6
100
AcDbEntity
  8
0
100
AcDbCircle
 10
-92.47517099
 20
335.21041147
 30
0.0
 40
17.99999044
100
AcDbArc
 50
86.450135480
 51
-175.710962913
  0
LINE
  5
1D7
100
AcDbEntity
  8
0
100
AcDbLine
 10
-107.75556888
 20
298.27707511
 30
0.0
 11
-110.42475176
 21
333.86422953
 31
0.0
  0
POLYLINE
  5
1D8
100
AcDbEntity
  8
0
100
AcDb2dPolyline
 66
     1
 70
     1
  0
VERTEX
  5
1D9
100
AcDbEntity
  8
0
100
AcDbVertex
100
AcDb2dVertex
 10
325.17595206
 20
96.26434698
 30
0.0
  0
VERTEX
  5
1DA
100
AcDbEntity
  8
0
100
AcDbVertex
100
AcDb2dVertex
 10
-124.82380380
 20
96.26434698
 30
0.0
  0
VERTEX
  5
1DB
100
AcDbEntity
  8
0
100
AcDbVertex
100
AcDb2dVertex
 10
-124.82380380
 20
79.62862436
 30
0.0
  0
VERTEX
  5
1DC
100
AcDbEntity
  8
0
100
AcDbVertex
100
AcDb2dVertex
 10
100.17607413
 20
79.62862436
 30
0.0
  0
VERTEX
  5
1DD
100
AcDbEntity
  8
0
100
AcDbVertex
100
AcDb2dVertex
 10
325.17595206
 20
79.62862436
 30
0.0
  0
SEQEND
  5
1DE
100
AcDbEntity
  8
0
  0
LINE
  5
1DF
100
AcDbEntity
  8
0
100
AcDbLine
 10
278.07141443
 20
299.95093352
 30
0.0
 11
284.65740001
 21
96.26434698
 31
0.0
  0
LINE
  5
1E0
100
AcDbEntity
  8
0
100
AcDbLine
 10
314.63958031
 20
96.26434698
 30
0.0
 11
308.05574449
 21
299.88444764
 31
0.0
  0
ELLIPSE
  5
1E1
100
AcDbEntity
  8
0
100
AcDbEllipse
 10
278.07141443
 20
298.91493674
 30
0.0
 11
29.98433005
 21
0.96951090
 31
0.0
 40
0.03451521
 41
6.28318531
 42
1.56968032
  0
LINE
  5
1E2
100
AcDbEntity
  8
0
100
AcDbLine
 10
256.34420119
 20
321.96013446
 30
0.0
 11
278.07141443
 21
299.95093352
 31
0.0
  0
LINE
  5
1E3
100
AcDbEntity
  8
0
100
AcDbLine
 10
100.17607413
 20
325.65622016
 30
0.0
 11
256.34420119
 21
321.96013446
 31
0.0
  0
LINE
  5
1E4
100
AcDbEntity
  8
0
100
AcDbLine
 10
-55.99205293
 20
321.96013446
 30
0.0
 11
100.17607413
 21
325.65622016
 31
0.0
  0
LINE
  5
1E5
100
AcDbEntity
  8
0
100
AcDbLine
 10
-77.71926618
 20
299.95093352
 30
0.0
 11
-55.99205293
 21
321.96013446
 31
0.0
  0
LINE
  5
1E6
100
AcDbEntity
  8
0
100
AcDbLine
 10
-84.30525175
 20
96.26434698
 30
0.0
 11
-77.71926618
 21
299.95093352
 31
0.0
  0
LINE
  5
1E7
100
AcDbEntity
  8
0
100
AcDbLine
 10
-107.70359623
 20
299.88444764
 30
0.0
 11
-114.28743206
 21
96.26434698
 31
0.0
  0
ARC
  5
1E8
100
AcDbEntity
  8
0
100
AcDbCircle
 10
-77.71926618
 20
298.91493674
 30
0.0
 40
30.00000000
100
AcDbArc
 50
135.369405711
 51
178.148048125
  0
LINE
  5
1E9
100
AcDbEntity
  8
0
100
AcDbLine
 10
-77.34158338
 20
342.00013231
 30
0.0
 11
-99.06879663
 21
319.99093136
 31
0.0
  0
ELLIPSE
  5
1EA
100
AcDbEntity
  8
0
100
AcDbEllipse
 10
-55.99205293
 20
320.92413768
 30
0.0
 11
21.34953045
 21
-21.07599463
 31
0.0
 40
0.02458284
 41
1.59505944
 42
3.14159265
  0
ELLIPSE
  5
1EB
100
AcDbEntity
  8
0
100
AcDbEllipse
 10
-55.99205293
 20
320.92413768
 30
0.0
 11
0.70982172
 21
-29.99160138
 31
0.0
 40
0.00081757
 41
1.60532675
 42
3.14159265
  0
LINE
  5
1EC
100
AcDbEntity
  8
0
100
AcDbLine
 10
100.17607413
 20
354.62862436
 30
0.0
 11
-56.70187465
 21
350.91573906
 31
0.0
  0
LINE
  5
1ED
100
AcDbEntity
  8
0
100
AcDbLine
 10
100.17607413
 20
325.65622016
 30
0.0
 11
100.17607413
 21
354.62862436
 31
0.0
  0
LINE
  5
1EE
100
AcDbEntity
  8
0
100
AcDbLine
 10
257.05402291
 20
350.91573906
 30
0.0
 11
100.17607413
 21
354.62862436
 31
0.0
  0
ELLIPSE
  5
1EF
100
AcDbEntity
  8
0
100
AcDbEllipse
 10
256.34420119
 20
320.92413768
 30
0.0
 11
-0.70982172
 21
-29.99160138
 31
0.0
 40
0.00081757
 41
3.14159265
 42
4.67785856
  0
ELLIPSE
  5
1F0
100
AcDbEntity
  8
0
100
AcDbEllipse
 10
256.34420119
 20
320.92413768
 30
0.0
 11
21.34953045
 21
21.07599463
 31
0.0
 40
0.02458284
 41
6.28318531
 42
1.54653321
  0
LINE
  5
1F1
100
AcDbEntity
  8
0
100
AcDbLine
 10
299.42094489
 20
319.99093136
 30
0.0
 11
277.69373164
 21
342.00013231
 31
0.0
  0
ELLIPSE
  5
1F2
100
AcDbEntity
  8
0
100
AcDbEllipse
 10
278.07141443
 20
298.91493674
 30
0.0
 11
21.34953045
 21
21.07599463
 31
0.0
 40
0.02458284
 41
0.0
 42
1.54653321
  0
ARC
  5
1F3
100
AcDbEntity
  8
0
100
AcDbCircle
 10
278.07141443
 20
298.91493674
 30
0.0
 40
30.00000000
100
AcDbArc
 50
1.851951875
 51
44.630594289
  0
ARC
  5
1F4
100
AcDbEntity
  8
0
100
AcDbCircle
 10
256.34420119
 20
320.92413768
 30
0.0
 40
30.00000000
100
AcDbArc
 50
44.630594289
 51
88.644213848
  0
ARC
  5
1F5
100
AcDbEntity
  8
0
100
AcDbCircle
 10
-55.99205293
 20
320.92413768
 30
0.0
 40
30.00000000
100
AcDbArc
 50
91.355786152
 51
135.369405711
  0
ELLIPSE
  5
1F6
100
AcDbEntity
  8
0
100
AcDbEllipse
 10
-77.71926618
 20
298.91493674
 30
0.0
 11
21.34953045
 21
-21.07599463
 31
0.0
 40
0.02458284
 41
1.59505944
 42
3.14159265
  0
ELLIPSE
  5
1F7
100
AcDbEntity
  8
0
100
AcDbEllipse
 10
-77.71926618
 20
298.91493674
 30
0.0
 11
29.98433005
 21
-0.96951090
 31
0.0
 40
0.03451521
 41
1.57191234
 42
3.14159265
  0
ENDBLK
  5
1F8
100
AcDbEntity
  8
0
100
AcDbBlockEnd
  0
BLOCK
  5
1F9
100
AcDbEntity
  8
0
100
AcDbBlockBegin
  2
FROM3D_00009
 70
    64
 10
0.0
 20
0.0
 30
0.0
  3
FROM3D_00009
  0
INSERT
  5
1FA
100
AcDbEntity
  8
0
100
AcDbBlockReference
  2
FROM3D_00010
 10
295.67399893
 20
567.02047006
 30
0.0
  0
ENDBLK
  5
1FB
100
AcDbEntity
  8
0
100
AcDbBlockEnd
  0
BLOCK
  5
1FC
100
AcDbEntity
  8
0
100
AcDbBlockBegin
  2
FROM3D_00010
 70
    64
 10
295.67399893
 20
567.02047006
 30
0.0
  3
FROM3D_00010
  0
CIRCLE
  5
1FD
100
AcDbEntity
  8
LE_ALL
100
AcDbCircle
  6
PHANTOM
 62
     1
 10
295.67399893
 20
560.02047006
 30
0.0
 40
7.00000000
  0
LINE
  5
1FE
100
AcDbEntity
  8
LE_ALL
100
AcDbLine
  6
PHANTOM
 62
     1
 10
308.10771714
 20
520.27707511
 30
0.0
 11
310.77690002
 21
555.86422953
 31
0.0
  0
ARC
  5
1FF
100
AcDbEntity
  8
LE_ALL
100
AcDbCircle
  6
PHANTOM
 62
     1
 10
292.82731925
 20
557.21041147
 30
0.0
 40
17.99999044
100
AcDbArc
 50
-4.289037087
 51
93.549864520
  0
LINE
  5
200
100
AcDbEntity
  8
LE_ALL
100
AcDbLine
  6
PHANTOM
 62
     1
 10
291.71281036
 20
575.17586514
 30
0.0
 11
255.77022781
 21
572.94612309
 31
0.0
  0
CIRCLE
  5
201
100
AcDbEntity
  8
LE_ALL
100
AcDbCircle
  6
PHANTOM
 62
     1
 10
-95.32185068
 20
560.02047006
 30
0.0
 40
7.00000000
  0
LINE
  5
202
100
AcDbEntity
  8
LE_ALL
100
AcDbLine
  6
PHANTOM
 62
     1
 10
-91.36066211
 20
575.17586514
 30
0.0
 11
-55.41807956
 21
572.94612309
 31
0.0
  0
ARC
  5
203
100
AcDbEntity
  8
LE_ALL
100
AcDbCircle
  6
PHANTOM
 62
     1
 10
-92.47517099
 20
557.21041147
 30
0.0
 40
17.99999044
100
AcDbArc
 50
86.450135480
 51
-175.710962913
  0
LINE
  5
204
100
AcDbEntity
  8
LE_ALL
100
AcDbLine
  6
PHANTOM
 62
     1
 10
-107.75556888
 20
520.27707511
 30
0.0
 11
-110.42475176
 21
555.86422953
 31
0.0
  0
LINE
  5
205
100
AcDbEntity
  8
LE_ALL
100
AcDbLine
  6
PHANTOM
 62
     1
 10
311.13573855
 20
426.62862436
 30
0.0
 11
281.15355825
 21
426.62862436
 31
0.0
  0
LINE
  5
206
100
AcDbEntity
  8
LE_ALL
100
AcDbLine
  6
PHANTOM
 62
     1
 10
278.07141443
 20
521.95093352
 30
0.0
 11
281.15355825
 21
426.62862436
 31
0.0
  0
ELLIPSE
  5
207
100
AcDbEntity
  8
LE_ALL
100
AcDbEllipse
  6
PHANTOM
 62
     1
 10
278.07141443
 20
520.91493674
 30
0.0
 11
29.98433005
 21
0.96951090
 31
0.0
 40
0.03451521
 41
0.00000000
 42
1.56968032
  0
POLYLINE
  5
208
100
AcDbEntity
  8
LE_ALL
100
AcDb2dPolyline
  6
PHANTOM
 62
     1
 66
     1
  0
VERTEX
  5
209
100
AcDbEntity
  8
LE_ALL
100
AcDbVertex
100
AcDb2dVertex
 10
311.13573855
 20
426.62862436
 30
0.0
  0
VERTEX
  5
20A
100
AcDbEntity
  8
LE_ALL
100
AcDbVertex
100
AcDb2dVertex
 10
308.05574449
 20
521.88444764
 30
0.0
 42
-.000000000
  0
VERTEX
  5
20B
100
AcDbEntity
  8
LE_ALL
100
AcDbVertex
100
AcDb2dVertex
 10
308.05574449
 20
521.88444764
 30
0.0
  0
SEQEND
  5
20C
100
AcDbEntity
  8
LE_ALL
  0
ARC
  5
20D
100
AcDbEntity
  8
LE_ALL
100
AcDbCircle
  6
PHANTOM
 62
     1
 10
278.07141443
 20
520.91493674
 30
0.0
 40
30.00000000
100
AcDbArc
 50
1.862883017
 51
44.630594289
  0
ELLIPSE
  5
20E
100
AcDbEntity
  8
LE_ALL
100
AcDbEllipse
  6
PHANTOM
 62
     1
 10
278.07141443
 20
520.91493674
 30
0.0
 11
21.34953045
 21
21.07599463
 31
0.0
 40
0.02458284
 41
0.0
 42
1.54653321
  0
LINE
  5
20F
100
AcDbEntity
  8
LE_ALL
100
AcDbLine
  6
PHANTOM
 62
     1
 10
256.34420119
 20
543.96013446
 30
0.0
 11
278.07141443
 21
521.95093352
 31
0.0
  0
ELLIPSE
  5
210
100
AcDbEntity
  8
LE_ALL
100
AcDbEllipse
  6
PHANTOM
 62
     1
 10
256.34420119
 20
542.92413768
 30
0.0
 11
21.34953045
 21
21.07599463
 31
0.0
 40
0.02458284
 41
0.00000000
 42
1.54653321
  0
LINE
  5
211
100
AcDbEntity
  8
LE_ALL
100
AcDbLine
  6
PHANTOM
 62
     1
 10
299.42094489
 20
541.99093136
 30
0.0
 11
277.69373164
 21
564.00013231
 31
0.0
  0
POLYLINE
  5
212
100
AcDbEntity
  8
LE_ALL
100
AcDb2dPolyline
  6
PHANTOM
 62
     1
 66
     1
  0
VERTEX
  5
213
100
AcDbEntity
  8
LE_ALL
100
AcDbVertex
100
AcDb2dVertex
 10
277.69090105
 20
564.00299925
 30
0.0
 42
0.194407139
  0
VERTEX
  5
214
100
AcDbEntity
  8
LE_ALL
100
AcDbVertex
100
AcDb2dVertex
 10
257.05402291
 20
572.91573906
 30
0.0
  0
SEQEND
  5
215
100
AcDbEntity
  8
LE_ALL
  0
ELLIPSE
  5
216
100
AcDbEntity
  8
LE_ALL
100
AcDbEllipse
  6
PHANTOM
 62
     1
 10
256.34420119
 20
542.92413768
 30
0.0
 11
-0.70982172
 21
-29.99160138
 31
0.0
 40
0.00081757
 41
3.14159265
 42
4.67785856
  0
LINE
  5
217
100
AcDbEntity
  8
LE_ALL
100
AcDbLine
  6
PHANTOM
 62
     1
 10
100.17607413
 20
547.65622016
 30
0.0
 11
256.34420119
 21
543.96013446
 31
0.0
  0
LINE
  5
218
100
AcDbEntity
  8
LE_ALL
100
AcDbLine
  6
PHANTOM
 62
     1
 10
100.17607413
 20
547.65622016
 30
0.0
 11
100.17607413
 21
576.62862436
 31
0.0
  0
POLYLINE
  5
219
100
AcDbEntity
  8
LE_ALL
100
AcDb2dPolyline
  6
PHANTOM
 62
     1
 66
     1
  0
VERTEX
  5
21A
100
AcDbEntity
  8
LE_ALL
100
AcDbVertex
100
AcDb2dVertex
 10
257.05402291
 20
572.91573906
 30
0.0
  0
VERTEX
  5
21B
100
AcDbEntity
  8
LE_ALL
100
AcDbVertex
100
AcDb2dVertex
 10
100.17607413
 20
576.62862436
 30
0.0
  0
VERTEX
  5
21C
100
AcDbEntity
  8
LE_ALL
100
AcDbVertex
100
AcDb2dVertex
 10
-56.70187465
 20
572.91573906
 30
0.0
  0
SEQEND
  5
21D
100
AcDbEntity
  8
LE_ALL
  0
ELLIPSE
  5
21E
100
AcDbEntity
  8
LE_ALL
100
AcDbEllipse
  6
PHANTOM
 62
     1
 10
-55.99205293
 20
542.92413768
 30
0.0
 11
0.70982172
 21
-29.99160138
 31
0.0
 40
0.00081757
 41
1.60532675
 42
3.14159265
  0
LINE
  5
21F
100
AcDbEntity
  8
LE_ALL
100
AcDbLine
  6
PHANTOM
 62
     1
 10
-55.99205293
 20
543.96013446
 30
0.0
 11
100.17607413
 21
547.65622016
 31
0.0
  0
ELLIPSE
  5
220
100
AcDbEntity
  8
LE_ALL
100
AcDbEllipse
  6
PHANTOM
 62
     1
 10
-55.99205293
 20
542.92413768
 30
0.0
 11
21.34953045
 21
-21.07599463
 31
0.0
 40
0.02458284
 41
1.59505944
 42
3.14159265
  0
ARC
  5
221
100
AcDbEntity
  8
LE_ALL
100
AcDbCircle
  6
PHANTOM
 62
     1
 10
-55.99205293
 20
542.92413768
 30
0.0
 40
30.00000000
100
AcDbArc
 50
91.355786152
 51
135.361711172
  0
LINE
  5
222
100
AcDbEntity
  8
LE_ALL
100
AcDbLine
  6
PHANTOM
 62
     1
 10
-77.34158338
 20
564.00013231
 30
0.0
 11
-99.06879663
 21
541.99093136
 31
0.0
  0
ELLIPSE
  5
223
100
AcDbEntity
  8
LE_ALL
100
AcDbEllipse
  6
PHANTOM
 62
     1
 10
-77.71926618
 20
520.91493674
 30
0.0
 11
21.34953045
 21
-21.07599463
 31
0.0
 40
0.02458284
 41
1.59505944
 42
3.14159265
  0
LINE
  5
224
100
AcDbEntity
  8
LE_ALL
100
AcDbLine
  6
PHANTOM
 62
     1
 10
-77.71926618
 20
521.95093352
 30
0.0
 11
-55.99205293
 21
543.96013446
 31
0.0
  0
ELLIPSE
  5
225
100
AcDbEntity
  8
LE_ALL
100
AcDbEllipse
  6
PHANTOM
 62
     1
 10
-77.71926618
 20
520.91493674
 30
0.0
 11
29.98433005
 21
-0.96951090
 31
0.0
 40
0.03451521
 41
1.57191234
 42
3.14159265
  0
ARC
  5
226
100
AcDbEntity
  8
LE_ALL
100
AcDbCircle
  6
PHANTOM
 62
     1
 10
-77.71926618
 20
520.91493674
 30
0.0
 40
30.00000000
100
AcDbArc
 50
135.369405711
 51
178.137116983
  0
LINE
  5
227
100
AcDbEntity
  8
LE_ALL
100
AcDbLine
  6
PHANTOM
 62
     1
 10
-107.70359623
 20
521.88444764
 30
0.0
 11
-110.78359030
 21
426.62862436
 31
0.0
  0
LINE
  5
228
100
AcDbEntity
  8
LE_ALL
100
AcDbLine
  6
PHANTOM
 62
     1
 10
-80.80140999
 20
426.62862436
 30
0.0
 11
-110.78359030
 21
426.62862436
 31
0.0
  0
LINE
  5
229
100
AcDbEntity
  8
LE_ALL
100
AcDbLine
  6
PHANTOM
 62
     1
 10
-80.80140999
 20
426.62862436
 30
0.0
 11
-77.71926618
 21
521.95093352
 31
0.0
  0
LINE
  5
22A
100
AcDbEntity
  8
LE_ALL
100
AcDbLine
  6
PHANTOM
 62
     1
 10
281.15355825
 20
426.62862436
 30
0.0
 11
-80.80140999
 21
426.62862436
 31
0.0
  0
ENDBLK
  5
22B
100
AcDbEntity
  8
0
100
AcDbBlockEnd
  0
BLOCK
  5
22C
100
AcDbEntity
  8
0
100
AcDbBlockBegin
  2
ANS3D03_00011
 70
    64
 10
0.0
 20
0.0
 30
0.0
  3
ANS3D03_00011
  0
INSERT
  5
22D
100
AcDbEntity
  8
0
100
AcDbBlockReference
  2
FIG3D03_00012
 10
0.0
 20
0.0
 30
0.0
  0
ENDBLK
  5
22E
100
AcDbEntity
  8
0
100
AcDbBlockEnd
  0
BLOCK
  5
22F
100
AcDbEntity
  8
0
100
AcDbBlockBegin
  2
FIG3D03_00012
 70
    64
 10
0.0
 20
0.0
 30
0.0
  3
FIG3D03_00012
  0
INSERT
  5
230
100
AcDbEntity
  8
0
100
AcDbBlockReference
  2
FROM3D_00013
 10
0.0
 20
0.0
 30
0.0
  0
ENDBLK
  5
231
100
AcDbEntity
  8
0
100
AcDbBlockEnd
  0
BLOCK
  5
232
100
AcDbEntity
  8
0
100
AcDbBlockBegin
  2
FROM3D_00013
 70
    64
 10
0.0
 20
0.0
 30
0.0
  3
FROM3D_00013
  0
INSERT
  5
233
100
AcDbEntity
  8
0
100
AcDbBlockReference
  2
FROM3D_00014
 10
0.0
 20
0.0
 30
0.0
  0
INSERT
  5
234
100
AcDbEntity
  8
0
100
AcDbBlockReference
  2
FROM3D_00019
 10
0.0
 20
0.0
 30
0.0
  0
ENDBLK
  5
235
100
AcDbEntity
  8
0
100
AcDbBlockEnd
  0
BLOCK
  5
236
100
AcDbEntity
  8
0
100
AcDbBlockBegin
  2
FROM3D_00014
 70
    64
 10
0.0
 20
0.0
 30
0.0
  3
FROM3D_00014
  0
INSERT
  5
237
100
AcDbEntity
  8
0
100
AcDbBlockReference
  2
FROM3D_00015
 10
0.0
 20
0.0
 30
0.0
  0
INSERT
  5
238
100
AcDbEntity
  8
0
100
AcDbBlockReference
  2
FROM3D_00017
 10
0.0
 20
0.0
 30
0.0
  0
ENDBLK
  5
239
100
AcDbEntity
  8
0
100
AcDbBlockEnd
  0
BLOCK
  5
23A
100
AcDbEntity
  8
0
100
AcDbBlockBegin
  2
FROM3D_00015
 70
    64
 10
0.0
 20
0.0
 30
0.0
  3
FROM3D_00015
  0
INSERT
  5
23B
100
AcDbEntity
  8
0
100
AcDbBlockReference
  2
FROM3D_00016
 10
848.67598726
 20
-3.37137564
 30
0.0
  0
ENDBLK
  5
23C
100
AcDbEntity
  8
0
100
AcDbBlockEnd
  0
BLOCK
  5
23D
100
AcDbEntity
  8
0
100
AcDbBlockBegin
  2
FROM3D_00016
 70
    64
 10
848.67598726
 20
-3.37137564
 30
0.0
  3
FROM3D_00016
  0
LINE
  5
23E
100
AcDbEntity
  8
0
100
AcDbLine
 10
848.67598726
 20
-3.37137564
 30
0.0
 11
803.67598726
 21
-3.37137564
 31
0.0
  0
LINE
  5
23F
100
AcDbEntity
  8
0
100
AcDbLine
 10
803.67598726
 20
-0.37137564
 30
0.0
 11
803.67598726
 21
-3.37137564
 31
0.0
  0
POLYLINE
  5
240
100
AcDbEntity
  8
0
100
AcDb2dPolyline
 66
     1
  0
VERTEX
  5
241
100
AcDbEntity
  8
0
100
AcDbVertex
100
AcDb2dVertex
 10
816.67593389
 20
14.62862436
 30
0.0
  0
VERTEX
  5
242
100
AcDbEntity
  8
0
100
AcDbVertex
100
AcDb2dVertex
 10
848.67598726
 20
14.62853055
 30
0.0
  0
VERTEX
  5
243
100
AcDbEntity
  8
0
100
AcDbVertex
100
AcDb2dVertex
 10
848.67598726
 20
-3.37137564
 30
0.0
  0
SEQEND
  5
244
100
AcDbEntity
  8
0
  0
LINE
  5
245
100
AcDbEntity
  8
0
100
AcDbLine
 10
656.67598726
 20
14.62861739
 30
0.0
 11
688.67593389
 21
14.62862436
 31
0.0
  0
POLYLINE
  5
246
100
AcDbEntity
  8
0
100
AcDb2dPolyline
 66
     1
  0
VERTEX
  5
247
100
AcDbEntity
  8
0
100
AcDbVertex
100
AcDb2dVertex
 10
701.67598726
 20
-0.37137564
 30
0.0
  0
VERTEX
  5
248
100
AcDbEntity
  8
0
100
AcDbVertex
100
AcDb2dVertex
 10
701.67598726
 20
-3.37137564
 30
0.0
  0
VERTEX
  5
249
100
AcDbEntity
  8
0
100
AcDbVertex
100
AcDb2dVertex
 10
656.67598726
 20
-3.37137564
 30
0.0
  0
SEQEND
  5
24A
100
AcDbEntity
  8
0
  0
LINE
  5
24B
100
AcDbEntity
  8
0
100
AcDbLine
 10
656.67598726
 20
14.62861739
 30
0.0
 11
656.67598726
 21
-3.37137564
 31
0.0
  0
LINE
  5
24C
100
AcDbEntity
  8
0
100
AcDbLine
 10
645.17598726
 20
74.62862436
 30
0.0
 11
860.17598726
 21
74.62862436
 31
0.0
  0
LINE
  5
24D
100
AcDbEntity
  8
0
100
AcDbLine
 10
860.17598726
 20
79.62862436
 30
0.0
 11
860.17598726
 21
74.62862436
 31
0.0
  0
POLYLINE
  5
24E
100
AcDbEntity
  8
0
100
AcDb2dPolyline
 66
     1
  0
VERTEX
  5
24F
100
AcDbEntity
  8
0
100
AcDbVertex
100
AcDb2dVertex
 10
860.17598726
 20
79.62862436
 30
0.0
  0
VERTEX
  5
250
100
AcDbEntity
  8
0
100
AcDbVertex
100
AcDb2dVertex
 10
645.17598726
 20
79.62862436
 30
0.0
  0
VERTEX
  5
251
100
AcDbEntity
  8
0
100
AcDbVertex
100
AcDb2dVertex
 10
645.17598726
 20
74.62862436
 30
0.0
  0
SEQEND
  5
252
100
AcDbEntity
  8
0
  0
LINE
  5
253
100
AcDbEntity
  8
0
100
AcDbLine
 10
656.67598726
 20
14.62862436
 30
0.0
 11
645.17595206
 21
74.62862436
 31
0.0
  0
LINE
  5
254
100
AcDbEntity
  8
0
100
AcDbLine
 10
848.67587916
 20
14.62864508
 30
0.0
 11
848.67587916
 21
14.62864508
 31
0.0
  0
LINE
  5
255
100
AcDbEntity
  8
0
100
AcDbLine
 10
848.67598726
 20
-0.37137564
 30
0.0
 11
878.67591686
 21
-0.37137564
 31
0.0
  0
LINE
  5
256
100
AcDbEntity
  8
0
100
AcDbLine
 10
878.67591686
 20
79.62862436
 30
0.0
 11
878.67591686
 21
-0.37137564
 31
0.0
  0
LINE
  5
257
100
AcDbEntity
  8
0
100
AcDbLine
 10
860.17598726
 20
79.62862436
 30
0.0
 11
878.67591686
 21
79.62862436
 31
0.0
  0
LINE
  5
258
100
AcDbEntity
  8
0
100
AcDbLine
 10
816.67597874
 20
-0.37137564
 30
0.0
 11
688.67597874
 21
-0.37137564
 31
0.0
  0
LINE
  5
259
100
AcDbEntity
  8
0
100
AcDbLine
 10
688.67597874
 20
74.62862436
 30
0.0
 11
688.67597874
 21
-0.37137564
 31
0.0
  0
LINE
  5
25A
100
AcDbEntity
  8
0
100
AcDbLine
 10
816.67597874
 20
74.62862436
 30
0.0
 11
816.67597874
 21
-0.37137564
 31
0.0
  0
ENDBLK
  5
25B
100
AcDbEntity
  8
0
100
AcDbBlockEnd
  0
BLOCK
  5
25C
100
AcDbEntity
  8
0
100
AcDbBlockBegin
  2
FROM3D_00017
 70
    64
 10
0.0
 20
0.0
 30
0.0
  3
FROM3D_00017
  0
INSERT
  5
25D
100
AcDbEntity
  8
0
100
AcDbBlockReference
  2
FROM3D_00018
 10
645.25875093
 20
96.26434698
 30
0.0
  0
ENDBLK
  5
25E
100
AcDbEntity
  8
0
100
AcDbBlockEnd
  0
BLOCK
  5
25F
100
AcDbEntity
  8
0
100
AcDbBlockBegin
  2
FROM3D_00018
 70
    64
 10
645.25875093
 20
96.26434698
 30
0.0
  3
FROM3D_00018
  0
POLYLINE
  5
260
100
AcDbEntity
  8
0
100
AcDb2dPolyline
 66
     1
 70
     1
  0
VERTEX
  5
261
100
AcDbEntity
  8
0
100
AcDbVertex
100
AcDb2dVertex
 10
645.25875093
 20
96.26434698
 30
0.0
  0
VERTEX
  5
262
100
AcDbEntity
  8
0
100
AcDbVertex
100
AcDb2dVertex
 10
860.17598726
 20
96.26434698
 30
0.0
  0
VERTEX
  5
263
100
AcDbEntity
  8
0
100
AcDbVertex
100
AcDb2dVertex
 10
860.17598726
 20
79.62862436
 30
0.0
  0
VERTEX
  5
264
100
AcDbEntity
  8
0
100
AcDbVertex
100
AcDb2dVertex
 10
645.25875093
 20
79.62862436
 30
0.0
  0
SEQEND
  5
265
100
AcDbEntity
  8
0
  0
ELLIPSE
  5
266
100
AcDbEntity
  8
0
100
AcDbEllipse
 10
692.79730438
 20
298.91493674
 30
0.0
 11
29.98210682
 21
-1.03598784
 31
0.0
 40
0.03229777
 41
1.57191233
 42
3.14159265
  0
LINE
  5
267
100
AcDbEntity
  8
0
100
AcDbLine
 10
685.76150966
 20
96.26434698
 30
0.0
 11
692.79730438
 21
299.88444764
 31
0.0
  0
LINE
  5
268
100
AcDbEntity
  8
0
100
AcDbLine
 10
662.81519757
 20
299.95092458
 30
0.0
 11
655.77710583
 21
96.26434698
 31
0.0
  0
ELLIPSE
  5
269
100
AcDbEntity
  8
0
100
AcDbEllipse
 10
692.79730438
 20
298.91493674
 30
0.0
 11
29.98210682
 21
-1.03598784
 31
0.0
 40
0.70232085
 41
1.59505923
 42
3.14159265
  0
POLYLINE
  5
26A
100
AcDbEntity
  8
0
100
AcDb2dPolyline
 66
     1
  0
VERTEX
  5
26B
100
AcDbEntity
  8
0
100
AcDbVertex
100
AcDb2dVertex
 10
692.79730438
 20
319.99093136
 30
0.0
  0
VERTEX
  5
26C
100
AcDbEntity
  8
0
100
AcDbVertex
100
AcDb2dVertex
 10
692.79730438
 20
299.88444764
 30
0.0
  0
VERTEX
  5
26D
100
AcDbEntity
  8
0
100
AcDbVertex
100
AcDb2dVertex
 10
747.70455227
 20
299.88444764
 30
0.0
  0
SEQEND
  5
26E
100
AcDbEntity
  8
0
  0
POLYLINE
  5
26F
100
AcDbEntity
  8
0
100
AcDb2dPolyline
 66
     1
  0
VERTEX
  5
270
100
AcDbEntity
  8
0
100
AcDbVertex
100
AcDb2dVertex
 10
747.70455227
 20
319.99093136
 30
0.0
  0
VERTEX
  5
271
100
AcDbEntity
  8
0
100
AcDbVertex
100
AcDb2dVertex
 10
692.79730438
 20
319.99093136
 30
0.0
  0
VERTEX
  5
272
100
AcDbEntity
  8
0
100
AcDbVertex
100
AcDb2dVertex
 10
693.55780013
 20
342.00013231
 30
0.0
  0
VERTEX
  5
273
100
AcDbEntity
  8
0
100
AcDbVertex
100
AcDb2dVertex
 10
747.70455227
 20
342.00013231
 30
0.0
  0
SEQEND
  5
274
100
AcDbEntity
  8
0
  0
POLYLINE
  5
275
100
AcDbEntity
  8
0
100
AcDb2dPolyline
 66
     1
  0
VERTEX
  5
276
100
AcDbEntity
  8
0
100
AcDbVertex
100
AcDb2dVertex
 10
747.70455227
 20
350.91573906
 30
0.0
  0
VERTEX
  5
277
100
AcDbEntity
  8
0
100
AcDbVertex
100
AcDb2dVertex
 10
693.55780013
 20
350.91573906
 30
0.0
  0
VERTEX
  5
278
100
AcDbEntity
  8
0
100
AcDbVertex
100
AcDb2dVertex
 10
693.55780013
 20
342.00013231
 30
0.0
  0
SEQEND
  5
279
100
AcDbEntity
  8
0
  0
ELLIPSE
  5
27A
100
AcDbEntity
  8
0
100
AcDbEllipse
 10
693.55780013
 20
320.92413768
 30
0.0
 11
29.98210682
 21
-1.03598784
 31
0.0
 40
0.70232085
 41
1.59505923
 42
3.14159265
  0
LINE
  5
27B
100
AcDbEntity
  8
0
100
AcDbLine
 10
663.70340615
 20
325.65621123
 30
0.0
 11
663.57569331
 21
321.96012553
 31
0.0
  0
ELLIPSE
  5
27C
100
AcDbEntity
  8
0
100
AcDbEllipse
 10
693.68551296
 20
324.62022338
 30
0.0
 11
-1.03627830
 21
-29.99051280
 31
0.0
 40
0.99971971
 41
3.17612278
 42
4.71238898
  0
LINE
  5
27D
100
AcDbEntity
  8
0
100
AcDbLine
 10
811.72300997
 20
354.62862436
 30
0.0
 11
693.68609345
 21
354.62862436
 31
0.0
  0
POLYLINE
  5
27E
100
AcDbEntity
  8
0
100
AcDb2dPolyline
 66
     1
  0
VERTEX
  5
27F
100
AcDbEntity
  8
0
100
AcDbVertex
100
AcDb2dVertex
 10
811.72300997
 20
354.62862436
 30
0.0
  0
VERTEX
  5
280
100
AcDbEntity
  8
0
100
AcDbVertex
100
AcDb2dVertex
 10
811.85130440
 20
350.91573906
 30
0.0
  0
VERTEX
  5
281
100
AcDbEntity
  8
0
100
AcDbVertex
100
AcDb2dVertex
 10
757.70455227
 20
350.91573906
 30
0.0
  0
SEQEND
  5
282
100
AcDbEntity
  8
0
  0
LINE
  5
283
100
AcDbEntity
  8
0
100
AcDbLine
 10
757.70455227
 20
342.00013231
 30
0.0
 11
811.85130440
 21
342.00013231
 31
0.0
  0
LINE
  5
284
100
AcDbEntity
  8
0
100
AcDbLine
 10
811.85130440
 20
350.91573906
 30
0.0
 11
811.85130440
 21
342.00013231
 31
0.0
  0
ELLIPSE
  5
285
100
AcDbEntity
  8
0
100
AcDbEllipse
 10
811.85130440
 20
320.92413768
 30
0.0
 11
29.98210651
 21
1.03599678
 31
0.0
 40
0.99971971
 41
6.28318531
 42
1.53626591
  0
LINE
  5
286
100
AcDbEntity
  8
0
100
AcDbLine
 10
842.59391322
 20
299.95093352
 30
0.0
 11
841.83341091
 21
321.96013446
 31
0.0
  0
LINE
  5
287
100
AcDbEntity
  8
0
100
AcDbLine
 10
849.63206603
 20
96.26434698
 30
0.0
 11
842.59391322
 21
299.95093352
 31
0.0
  0
LINE
  5
288
100
AcDbEntity
  8
0
100
AcDbLine
 10
812.61180671
 20
299.88444764
 30
0.0
 11
819.64766218
 21
96.26434698
 31
0.0
  0
LINE
  5
289
100
AcDbEntity
  8
0
100
AcDbLine
 10
757.70455227
 20
299.88444764
 30
0.0
 11
812.61180671
 21
299.88444764
 31
0.0
  0
LINE
  5
28A
100
AcDbEntity
  8
0
100
AcDbLine
 10
812.61180671
 20
319.99093136
 30
0.0
 11
757.70455227
 21
319.99093136
 31
0.0
  0
LINE
  5
28B
100
AcDbEntity
  8
0
100
AcDbLine
 10
811.85130440
 20
342.00013231
 30
0.0
 11
812.61180671
 21
319.99093136
 31
0.0
  0
ELLIPSE
  5
28C
100
AcDbEntity
  8
0
100
AcDbEllipse
 10
811.85130440
 20
320.92413768
 30
0.0
 11
29.98210651
 21
1.03599678
 31
0.0
 40
0.70232085
 41
0.00000000
 42
1.54653321
  0
POLYLINE
  5
28D
100
AcDbEntity
  8
0
100
AcDb2dPolyline
 66
     1
  0
VERTEX
  5
28E
100
AcDbEntity
  8
0
100
AcDbVertex
100
AcDb2dVertex
 10
841.83341091
 20
321.96013446
 30
0.0
  0
VERTEX
  5
28F
100
AcDbEntity
  8
0
100
AcDbVertex
100
AcDb2dVertex
 10
841.70569697
 20
325.65622016
 30
0.0
  0
SEQEND
  5
290
100
AcDbEntity
  8
0
  0
ELLIPSE
  5
291
100
AcDbEntity
  8
0
100
AcDbEllipse
 10
811.72359047
 20
324.62022338
 30
0.0
 11
1.03628724
 21
-29.99051250
 31
0.0
 40
0.99971971
 41
1.57079633
 42
3.10706223
  0
LINE
  5
292
100
AcDbEntity
  8
0
100
AcDbLine
 10
812.61180671
 20
319.99093136
 30
0.0
 11
812.61180671
 21
299.88444764
 31
0.0
  0
ELLIPSE
  5
293
100
AcDbEntity
  8
0
100
AcDbEllipse
 10
812.61180671
 20
298.91493674
 30
0.0
 11
29.98210651
 21
1.03599678
 31
0.0
 40
0.03229777
 41
0.0
 42
1.56968032
  0
ELLIPSE
  5
294
100
AcDbEntity
  8
0
100
AcDbEllipse
 10
812.61180671
 20
298.91493674
 30
0.0
 11
29.98210651
 21
1.03599678
 31
0.0
 40
0.70232085
 41
0.0
 42
1.54653321
  0
POLYLINE
  5
295
100
AcDbEntity
  8
0
100
AcDb2dPolyline
 66
     1
  0
VERTEX
  5
296
100
AcDbEntity
  8
0
100
AcDbVertex
100
AcDb2dVertex
 10
757.70455227
 20
298.27707511
 30
0.0
  0
VERTEX
  5
297
100
AcDbEntity
  8
0
100
AcDbVertex
100
AcDb2dVertex
 10
747.70455227
 20
298.27707511
 30
0.0
  0
VERTEX
  5
298
100
AcDbEntity
  8
0
100
AcDbVertex
100
AcDb2dVertex
 10
747.70455227
 20
333.86404006
 30
0.0
  0
SEQEND
  5
299
100
AcDbEntity
  8
0
  0
LINE
  5
29A
100
AcDbEntity
  8
0
100
AcDbLine
 10
757.70455227
 20
333.86422953
 30
0.0
 11
747.70455227
 21
333.86404006
 31
0.0
  0
LINE
  5
29B
100
AcDbEntity
  8
0
100
AcDbLine
 10
757.70455227
 20
298.27707511
 30
0.0
 11
757.70455227
 21
333.86422953
 31
0.0
  0
LINE
  5
29C
100
AcDbEntity
  8
0
100
AcDbLine
 10
757.70455227
 20
353.21040190
 30
0.0
 11
757.70455227
 21
333.86422953
 31
0.0
  0
LINE
  5
29D
100
AcDbEntity
  8
0
100
AcDbLine
 10
747.70455227
 20
353.21040190
 30
0.0
 11
757.70455227
 21
353.21040190
 31
0.0
  0
LINE
  5
29E
100
AcDbEntity
  8
0
100
AcDbLine
 10
747.70455227
 20
333.86404006
 30
0.0
 11
747.70455227
 21
353.21040190
 31
0.0
  0
LINE
  5
29F
100
AcDbEntity
  8
0
100
AcDbLine
 10
693.55780013
 20
350.91573906
 30
0.0
 11
693.68609345
 21
354.62862436
 31
0.0
  0
ELLIPSE
  5
2A0
100
AcDbEntity
  8
0
100
AcDbEllipse
 10
693.55780013
 20
320.92413768
 30
0.0
 11
29.98210682
 21
-1.03598784
 31
0.0
 40
0.99971971
 41
1.60532645
 42
3.14159265
  0
LINE
  5
2A1
100
AcDbEntity
  8
0
100
AcDbLine
 10
663.57569331
 20
321.96012553
 30
0.0
 11
662.81519757
 21
299.95092458
 31
0.0
  0
ENDBLK
  5
2A2
100
AcDbEntity
  8
0
100
AcDbBlockEnd
  0
BLOCK
  5
2A3
100
AcDbEntity
  8
0
100
AcDbBlockBegin
  2
FROM3D_00019
 70
    64
 10
0.0
 20
0.0
 30
0.0
  3
FROM3D_00019
  0
INSERT
  5
2A4
100
AcDbEntity
  8
0
100
AcDbBlockReference
  2
FROM3D_00020
 10
747.70455227
 20
575.17586514
 30
0.0
  0
ENDBLK
  5
2A5
100
AcDbEntity
  8
0
100
AcDbBlockEnd
  0
BLOCK
  5
2A6
100
AcDbEntity
  8
0
100
AcDbBlockBegin
  2
FROM3D_00020
 70
    64
 10
747.70455227
 20
575.17586514
 30
0.0
  3
FROM3D_00020
  0
LINE
  5
2A7
100
AcDbEntity
  8
LE_ALL
100
AcDbLine
  6
PHANTOM
 62
     1
 10
747.70455227
 20
575.17586514
 30
0.0
 11
757.70455227
 21
575.17586514
 31
0.0
  0
LINE
  5
2A8
100
AcDbEntity
  8
LE_ALL
100
AcDbLine
  6
PHANTOM
 10
747.70455227
 20
567.02047006
 30
0.0
 11
757.70455227
 21
567.02047006
 31
0.0
  0
LINE
  5
2A9
100
AcDbEntity
  8
LE_ALL
100
AcDbLine
  6
PHANTOM
 10
747.70455227
 20
553.02047006
 30
0.0
 11
757.70455227
 21
553.02047006
 31
0.0
  0
POLYLINE
  5
2AA
100
AcDbEntity
  8
LE_ALL
100
AcDb2dPolyline
  6
PHANTOM
 62
     1
 66
     1
  0
VERTEX
  5
2AB
100
AcDbEntity
  8
LE_ALL
100
AcDbVertex
100
AcDb2dVertex
 10
815.90326076
 20
426.62862436
 30
0.0
  0
VERTEX
  5
2AC
100
AcDbEntity
  8
LE_ALL
100
AcDbVertex
100
AcDb2dVertex
 10
689.50587875
 20
426.62862436
 30
0.0
  0
VERTEX
  5
2AD
100
AcDbEntity
  8
LE_ALL
100
AcDbVertex
100
AcDb2dVertex
 10
692.79730438
 20
521.88444764
 30
0.0
  0
VERTEX
  5
2AE
100
AcDbEntity
  8
LE_ALL
100
AcDbVertex
100
AcDb2dVertex
 10
747.70455227
 20
521.88444764
 30
0.0
  0
SEQEND
  5
2AF
100
AcDbEntity
  8
LE_ALL
  0
LINE
  5
2B0
100
AcDbEntity
  8
LE_ALL
100
AcDbLine
  6
PHANTOM
 62
     1
 10
757.70455227
 20
520.27707511
 30
0.0
 11
747.70455227
 21
520.27707511
 31
0.0
  0
POLYLINE
  5
2B1
100
AcDbEntity
  8
LE_ALL
100
AcDb2dPolyline
  6
PHANTOM
 62
     1
 66
     1
  0
VERTEX
  5
2B2
100
AcDbEntity
  8
LE_ALL
100
AcDbVertex
100
AcDb2dVertex
 10
757.70455227
 20
521.88444764
 30
0.0
  0
VERTEX
  5
2B3
100
AcDbEntity
  8
LE_ALL
100
AcDbVertex
100
AcDb2dVertex
 10
812.61180671
 20
521.88444764
 30
0.0
  0
VERTEX
  5
2B4
100
AcDbEntity
  8
LE_ALL
100
AcDbVertex
100
AcDb2dVertex
 10
815.90326076
 20
426.62862436
 30
0.0
  0
SEQEND
  5
2B5
100
AcDbEntity
  8
LE_ALL
  0
LINE
  5
2B6
100
AcDbEntity
  8
LE_ALL
100
AcDbLine
  6
PHANTOM
 62
     1
 10
845.88766461
 20
426.62862436
 30
0.0
 11
815.90326076
 21
426.62862436
 31
0.0
  0
POLYLINE
  5
2B7
100
AcDbEntity
  8
LE_ALL
100
AcDb2dPolyline
  6
PHANTOM
 62
     1
 66
     1
  0
VERTEX
  5
2B8
100
AcDbEntity
  8
LE_ALL
100
AcDbVertex
100
AcDb2dVertex
 10
845.88766461
 20
426.62862436
 30
0.0
  0
VERTEX
  5
2B9
100
AcDbEntity
  8
LE_ALL
100
AcDbVertex
100
AcDb2dVertex
 10
842.59391322
 20
521.95093352
 30
0.0
  0
SEQEND
  5
2BA
100
AcDbEntity
  8
LE_ALL
  0
ELLIPSE
  5
2BB
100
AcDbEntity
  8
LE_ALL
100
AcDbEllipse
  6
PHANTOM
 62
     1
 10
812.61180671
 20
520.91493674
 30
0.0
 11
29.98210651
 21
1.03599678
 31
0.0
 40
0.03229777
 41
0.00000000
 42
1.56968032
  0
LINE
  5
2BC
100
AcDbEntity
  8
LE_ALL
100
AcDbLine
  6
PHANTOM
 62
     1
 10
812.61180671
 20
541.99093136
 30
0.0
 11
812.61180671
 21
521.88444764
 31
0.0
  0
ELLIPSE
  5
2BD
100
AcDbEntity
  8
LE_ALL
100
AcDbEllipse
  6
PHANTOM
 62
     1
 10
812.61180671
 20
520.91493674
 30
0.0
 11
29.98210651
 21
1.03599678
 31
0.0
 40
0.70232085
 41
0.00025420
 42
1.54653321
  0
LINE
  5
2BE
100
AcDbEntity
  8
LE_ALL
100
AcDbLine
  6
PHANTOM
 62
     1
 10
842.59391322
 20
521.95093352
 30
0.0
 11
841.83341091
 21
543.96013446
 31
0.0
  0
ELLIPSE
  5
2BF
100
AcDbEntity
  8
LE_ALL
100
AcDbEllipse
  6
PHANTOM
 62
     1
 10
811.85130440
 20
542.92413768
 30
0.0
 11
29.98210651
 21
1.03599678
 31
0.0
 40
0.70232085
 41
0.00000000
 42
1.54653321
  0
POLYLINE
  5
2C0
100
AcDbEntity
  8
LE_ALL
100
AcDb2dPolyline
  6
PHANTOM
 62
     1
 66
     1
  0
VERTEX
  5
2C1
100
AcDbEntity
  8
LE_ALL
100
AcDbVertex
100
AcDb2dVertex
 10
811.85130440
 20
564.00013231
 30
0.0
  0
VERTEX
  5
2C2
100
AcDbEntity
  8
LE_ALL
100
AcDbVertex
100
AcDb2dVertex
 10
812.61180671
 20
541.99093136
 30
0.0
  0
VERTEX
  5
2C3
100
AcDbEntity
  8
LE_ALL
100
AcDbVertex
100
AcDb2dVertex
 10
757.70455227
 20
541.99093136
 30
0.0
  0
SEQEND
  5
2C4
100
AcDbEntity
  8
LE_ALL
  0
LINE
  5
2C5
100
AcDbEntity
  8
LE_ALL
100
AcDbLine
  6
PHANTOM
 62
     1
 10
757.70455227
 20
564.00013231
 30
0.0
 11
811.85130440
 21
564.00013231
 31
0.0
  0
LINE
  5
2C6
100
AcDbEntity
  8
LE_ALL
100
AcDbLine
  6
PHANTOM
 62
     1
 10
811.85130440
 20
572.91573906
 30
0.0
 11
811.85130440
 21
564.00013231
 31
0.0
  0
ELLIPSE
  5
2C7
100
AcDbEntity
  8
LE_ALL
100
AcDbEllipse
  6
PHANTOM
 62
     1
 10
811.85130440
 20
542.92413768
 30
0.0
 11
29.98210651
 21
1.03599678
 31
0.0
 40
0.99971971
 41
0.00768422
 42
1.53626591
  0
POLYLINE
  5
2C8
100
AcDbEntity
  8
LE_ALL
100
AcDb2dPolyline
  6
PHANTOM
 62
     1
 66
     1
  0
VERTEX
  5
2C9
100
AcDbEntity
  8
LE_ALL
100
AcDbVertex
100
AcDb2dVertex
 10
841.83341091
 20
543.96013446
 30
0.0
  0
VERTEX
  5
2CA
100
AcDbEntity
  8
LE_ALL
100
AcDbVertex
100
AcDb2dVertex
 10
841.70569697
 20
547.65622016
 30
0.0
  0
SEQEND
  5
2CB
100
AcDbEntity
  8
LE_ALL
  0
ELLIPSE
  5
2CC
100
AcDbEntity
  8
LE_ALL
100
AcDbEllipse
  6
PHANTOM
 62
     1
 10
811.72359047
 20
546.62022338
 30
0.0
 11
1.03628724
 21
-29.99051250
 31
0.0
 40
0.99971971
 41
1.57079633
 42
3.10706223
  0
POLYLINE
  5
2CD
100
AcDbEntity
  8
LE_ALL
100
AcDb2dPolyline
  6
PHANTOM
 62
     1
 66
     1
  0
VERTEX
  5
2CE
100
AcDbEntity
  8
LE_ALL
100
AcDbVertex
100
AcDb2dVertex
 10
811.72300997
 20
576.62862436
 30
0.0
  0
VERTEX
  5
2CF
100
AcDbEntity
  8
LE_ALL
100
AcDbVertex
100
AcDb2dVertex
 10
811.85130440
 20
572.91573906
 30
0.0
  0
VERTEX
  5
2D0
100
AcDbEntity
  8
LE_ALL
100
AcDbVertex
100
AcDb2dVertex
 10
757.70455227
 20
572.91573906
 30
0.0
  0
SEQEND
  5
2D1
100
AcDbEntity
  8
LE_ALL
  0
LINE
  5
2D2
100
AcDbEntity
  8
LE_ALL
100
AcDbLine
  6
PHANTOM
 62
     1
 10
757.70455227
 20
572.94612309
 30
0.0
 11
747.70455227
 21
572.94612309
 31
0.0
  0
POLYLINE
  5
2D3
100
AcDbEntity
  8
LE_ALL
100
AcDb2dPolyline
  6
PHANTOM
 62
     1
 66
     1
  0
VERTEX
  5
2D4
100
AcDbEntity
  8
LE_ALL
100
AcDbVertex
100
AcDb2dVertex
 10
747.70455227
 20
572.91573906
 30
0.0
  0
VERTEX
  5
2D5
100
AcDbEntity
  8
LE_ALL
100
AcDbVertex
100
AcDb2dVertex
 10
693.55780013
 20
572.91573906
 30
0.0
  0
VERTEX
  5
2D6
100
AcDbEntity
  8
LE_ALL
100
AcDbVertex
100
AcDb2dVertex
 10
693.68609345
 20
576.62862436
 30
0.0
  0
SEQEND
  5
2D7
100
AcDbEntity
  8
LE_ALL
  0
LINE
  5
2D8
100
AcDbEntity
  8
LE_ALL
100
AcDbLine
  6
PHANTOM
 62
     1
 10
811.72300997
 20
576.62862436
 30
0.0
 11
693.68609345
 21
576.62862436
 31
0.0
  0
ELLIPSE
  5
2D9
100
AcDbEntity
  8
LE_ALL
100
AcDbEllipse
  6
PHANTOM
 62
     1
 10
693.68551296
 20
546.62022338
 30
0.0
 11
-1.03627830
 21
-29.99051280
 31
0.0
 40
0.99971971
 41
3.17612278
 42
4.71238898
  0
LINE
  5
2DA
100
AcDbEntity
  8
LE_ALL
100
AcDbLine
  6
PHANTOM
 62
     1
 10
663.70340615
 20
547.65621123
 30
0.0
 11
663.57569331
 21
543.96012553
 31
0.0
  0
ELLIPSE
  5
2DB
100
AcDbEntity
  8
LE_ALL
100
AcDbEllipse
  6
PHANTOM
 62
     1
 10
693.55780013
 20
542.92413768
 30
0.0
 11
29.98210682
 21
-1.03598784
 31
0.0
 40
0.99971971
 41
1.60532645
 42
3.13390844
  0
LINE
  5
2DC
100
AcDbEntity
  8
LE_ALL
100
AcDbLine
  6
PHANTOM
 62
     1
 10
693.55780013
 20
572.91573906
 30
0.0
 11
693.55780013
 21
564.00013231
 31
0.0
  0
ELLIPSE
  5
2DD
100
AcDbEntity
  8
LE_ALL
100
AcDbEllipse
  6
PHANTOM
 62
     1
 10
693.55780013
 20
542.92413768
 30
0.0
 11
29.98210682
 21
-1.03598784
 31
0.0
 40
0.70232085
 41
1.59505923
 42
3.14159265
  0
POLYLINE
  5
2DE
100
AcDbEntity
  8
LE_ALL
100
AcDb2dPolyline
  6
PHANTOM
 62
     1
 66
     1
  0
VERTEX
  5
2DF
100
AcDbEntity
  8
LE_ALL
100
AcDbVertex
100
AcDb2dVertex
 10
663.57569331
 20
543.96012553
 30
0.0
  0
VERTEX
  5
2E0
100
AcDbEntity
  8
LE_ALL
100
AcDbVertex
100
AcDb2dVertex
 10
662.81519757
 20
521.95092458
 30
0.0
  0
SEQEND
  5
2E1
100
AcDbEntity
  8
LE_ALL
  0
ELLIPSE
  5
2E2
100
AcDbEntity
  8
LE_ALL
100
AcDbEllipse
  6
PHANTOM
 62
     1
 10
692.79730438
 20
520.91493674
 30
0.0
 11
29.98210682
 21
-1.03598784
 31
0.0
 40
0.70232085
 41
1.59505923
 42
3.14133845
  0
POLYLINE
  5
2E3
100
AcDbEntity
  8
LE_ALL
100
AcDb2dPolyline
  6
PHANTOM
 62
     1
 66
     1
  0
VERTEX
  5
2E4
100
AcDbEntity
  8
LE_ALL
100
AcDbVertex
100
AcDb2dVertex
 10
692.79730438
 20
541.99093136
 30
0.0
  0
VERTEX
  5
2E5
100
AcDbEntity
  8
LE_ALL
100
AcDbVertex
100
AcDb2dVertex
 10
693.55780013
 20
564.00013231
 30
0.0
  0
VERTEX
  5
2E6
100
AcDbEntity
  8
LE_ALL
100
AcDbVertex
100
AcDb2dVertex
 10
747.70455227
 20
564.00013231
 30
0.0
  0
SEQEND
  5
2E7
100
AcDbEntity
  8
LE_ALL
  0
POLYLINE
  5
2E8
100
AcDbEntity
  8
LE_ALL
100
AcDb2dPolyline
  6
PHANTOM
 62
     1
 66
     1
  0
VERTEX
  5
2E9
100
AcDbEntity
  8
LE_ALL
100
AcDbVertex
100
AcDb2dVertex
 10
747.70455227
 20
541.99093136
 30
0.0
  0
VERTEX
  5
2EA
100
AcDbEntity
  8
LE_ALL
100
AcDbVertex
100
AcDb2dVertex
 10
692.79730438
 20
541.99093136
 30
0.0
  0
VERTEX
  5
2EB
100
AcDbEntity
  8
LE_ALL
100
AcDbVertex
100
AcDb2dVertex
 10
692.79730438
 20
521.88444764
 30
0.0
  0
SEQEND
  5
2EC
100
AcDbEntity
  8
LE_ALL
  0
ELLIPSE
  5
2ED
100
AcDbEntity
  8
LE_ALL
100
AcDbEllipse
  6
PHANTOM
 62
     1
 10
692.79730438
 20
520.91493674
 30
0.0
 11
29.98210682
 21
-1.03598784
 31
0.0
 40
0.03229777
 41
1.57191233
 42
3.14159265
  0
LINE
  5
2EE
100
AcDbEntity
  8
LE_ALL
100
AcDbLine
  6
PHANTOM
 62
     1
 10
662.81519757
 20
521.95092458
 30
0.0
 11
659.52147492
 21
426.62862436
 31
0.0
  0
LINE
  5
2EF
100
AcDbEntity
  8
LE_ALL
100
AcDbLine
  6
PHANTOM
 62
     1
 10
689.50587875
 20
426.62862436
 30
0.0
 11
659.52147492
 21
426.62862436
 31
0.0
  0
POLYLINE
  5
2F0
100
AcDbEntity
  8
LE_ALL
100
AcDb2dPolyline
  6
PHANTOM
 62
     1
 66
     1
  0
VERTEX
  5
2F1
100
AcDbEntity
  8
LE_ALL
100
AcDbVertex
100
AcDb2dVertex
 10
757.70455227
 20
520.27707511
 30
0.0
  0
VERTEX
  5
2F2
100
AcDbEntity
  8
LE_ALL
100
AcDbVertex
100
AcDb2dVertex
 10
757.70455227
 20
555.86422953
 30
0.0
  0
VERTEX
  5
2F3
100
AcDbEntity
  8
LE_ALL
100
AcDbVertex
100
AcDb2dVertex
 10
747.70455227
 20
555.86404006
 30
0.0
  0
SEQEND
  5
2F4
100
AcDbEntity
  8
LE_ALL
  0
POLYLINE
  5
2F5
100
AcDbEntity
  8
LE_ALL
100
AcDb2dPolyline
  6
PHANTOM
 62
     1
 66
     1
  0
VERTEX
  5
2F6
100
AcDbEntity
  8
LE_ALL
100
AcDbVertex
100
AcDb2dVertex
 10
747.70455227
 20
520.27707511
 30
0.0
  0
VERTEX
  5
2F7
100
AcDbEntity
  8
LE_ALL
100
AcDbVertex
100
AcDb2dVertex
 10
747.70455227
 20
555.86404006
 30
0.0
  0
VERTEX
  5
2F8
100
AcDbEntity
  8
LE_ALL
100
AcDbVertex
100
AcDb2dVertex
 10
747.70455227
 20
575.21040190
 30
0.0
  0
SEQEND
  5
2F9
100
AcDbEntity
  8
LE_ALL
  0
POLYLINE
  5
2FA
100
AcDbEntity
  8
LE_ALL
100
AcDb2dPolyline
  6
PHANTOM
 66
     1
  0
VERTEX
  5
2FB
100
AcDbEntity
  8
LE_ALL
100
AcDbVertex
100
AcDb2dVertex
 10
747.70455227
 20
575.21040190
 30
0.0
  0
VERTEX
  5
2FC
100
AcDbEntity
  8
LE_ALL
100
AcDbVertex
100
AcDb2dVertex
 10
757.70455227
 20
575.21040190
 30
0.0
  0
SEQEND
  5
2FD
100
AcDbEntity
  8
LE_ALL
  0
LINE
  5
2FE
100
AcDbEntity
  8
LE_ALL
100
AcDbLine
  6
PHANTOM
 62
     1
 10
757.70455227
 20
575.21040190
 30
0.0
 11
757.70455227
 21
555.86422953
 31
0.0
  0
ENDBLK
  5
2FF
100
AcDbEntity
  8
0
100
AcDbBlockEnd
  0
BLOCK
  5
300
100
AcDbEntity
  8
0
100
AcDbBlockBegin
  2
ANS3D04_00021
 70
    64
 10
0.0
 20
0.0
 30
0.0
  3
ANS3D04_00021
  0
INSERT
  5
301
100
AcDbEntity
  8
0
100
AcDbBlockReference
  2
FIG3D04_00022
 10
0.0
 20
0.0
 30
0.0
  0
ENDBLK
  5
302
100
AcDbEntity
  8
0
100
AcDbBlockEnd
  0
BLOCK
  5
303
100
AcDbEntity
  8
0
100
AcDbBlockBegin
  2
FIG3D04_00022
 70
    64
 10
0.0
 20
0.0
 30
0.0
  3
FIG3D04_00022
  0
INSERT
  5
304
100
AcDbEntity
  8
0
100
AcDbBlockReference
  2
FROM3D_00023
 10
0.0
 20
0.0
 30
0.0
  0
ENDBLK
  5
305
100
AcDbEntity
  8
0
100
AcDbBlockEnd
  0
BLOCK
  5
306
100
AcDbEntity
  8
0
100
AcDbBlockBegin
  2
FROM3D_00023
 70
    64
 10
0.0
 20
0.0
 30
0.0
  3
FROM3D_00023
  0
INSERT
  5
307
100
AcDbEntity
  8
0
100
AcDbBlockReference
  2
FROM3D_00024
 10
0.0
 20
0.0
 30
0.0
  0
INSERT
  5
308
100
AcDbEntity
  8
0
100
AcDbBlockReference
  2
FROM3D_00029
 10
0.0
 20
0.0
 30
0.0
  0
ENDBLK
  5
309
100
AcDbEntity
  8
0
100
AcDbBlockEnd
  0
BLOCK
  5
30A
100
AcDbEntity
  8
0
100
AcDbBlockBegin
  2
FROM3D_00024
 70
    64
 10
0.0
 20
0.0
 30
0.0
  3
FROM3D_00024
  0
INSERT
  5
30B
100
AcDbEntity
  8
0
100
AcDbBlockReference
  2
FROM3D_00025
 10
0.0
 20
0.0
 30
0.0
  0
INSERT
  5
30C
100
AcDbEntity
  8
0
100
AcDbBlockReference
  2
FROM3D_00027
 10
0.0
 20
0.0
 30
0.0
  0
ENDBLK
  5
30D
100
AcDbEntity
  8
0
100
AcDbBlockEnd
  0
BLOCK
  5
30E
100
AcDbEntity
  8
0
100
AcDbBlockBegin
  2
FROM3D_00025
 70
    64
 10
0.0
 20
0.0
 30
0.0
  3
FROM3D_00025
  0
INSERT
  5
30F
100
AcDbEntity
  8
0
100
AcDbBlockReference
  2
FROM3D_00026
 10
-124.82392582
 20
-250.45426130
 30
0.0
  0
ENDBLK
  5
310
100
AcDbEntity
  8
0
100
AcDbBlockEnd
  0
BLOCK
  5
311
100
AcDbEntity
  8
0
100
AcDbBlockBegin
  2
FROM3D_00026
 70
    64
 10
-124.82392582
 20
-250.45426130
 30
0.0
  3
FROM3D_00026
  0
POLYLINE
  5
312
100
AcDbEntity
  8
0
100
AcDb2dPolyline
 66
     1
  0
VERTEX
  5
313
100
AcDbEntity
  8
0
100
AcDbVertex
100
AcDb2dVertex
 10
-124.82392582
 20
-250.45426130
 30
0.0
  0
VERTEX
  5
314
100
AcDbEntity
  8
0
100
AcDbVertex
100
AcDb2dVertex
 10
-124.82392587
 20
-250.37149762
 30
0.0
  0
VERTEX
  5
315
100
AcDbEntity
  8
0
100
AcDbVertex
100
AcDb2dVertex
 10
325.17595206
 20
-250.37149762
 30
0.0
  0
SEQEND
  5
316
100
AcDbEntity
  8
0
  0
LINE
  5
317
100
AcDbEntity
  8
0
100
AcDbLine
 10
325.17595206
 20
-250.45426130
 30
0.0
 11
325.17595206
 21
-250.37149762
 31
0.0
  0
LINE
  5
318
100
AcDbEntity
  8
0
100
AcDbLine
 10
129.17607413
 20
-465.37149762
 30
0.0
 11
129.17608818
 21
-483.87135341
 31
0.0
  0
LINE
  5
319
100
AcDbEntity
  8
0
100
AcDbLine
 10
-0.82391182
 20
-483.87142722
 30
0.0
 11
129.17608818
 21
-483.87135341
 31
0.0
  0
LINE
  5
31A
100
AcDbEntity
  8
0
100
AcDbLine
 10
-0.82392587
 20
-465.37149762
 30
0.0
 11
-0.82391182
 21
-483.87142722
 31
0.0
  0
ENDBLK
  5
31B
100
AcDbEntity
  8
0
100
AcDbBlockEnd
  0
BLOCK
  5
31C
100
AcDbEntity
  8
0
100
AcDbBlockBegin
  2
FROM3D_00027
 70
    64
 10
0.0
 20
0.0
 30
0.0
  3
FROM3D_00027
  0
INSERT
  5
31D
100
AcDbEntity
  8
0
100
AcDbBlockReference
  2
FROM3D_00028
 10
314.63958031
 20
-424.84317255
 30
0.0
  0
ENDBLK
  5
31E
100
AcDbEntity
  8
0
100
AcDbBlockEnd
  0
BLOCK
  5
31F
100
AcDbEntity
  8
0
100
AcDbBlockBegin
  2
FROM3D_00028
 70
    64
 10
314.63958031
 20
-424.84317255
 30
0.0
  3
FROM3D_00028
  0
ELLIPSE
  5
320
100
AcDbEntity
  8
0
100
AcDbEllipse
 10
284.62390218
 20
-424.80967223
 30
0.0
 11
20.52081827
 21
-21.92969499
 31
0.0
 40
0.99888215
 41
5.53152164
 42
0.81801664
  0
LINE
  5
321
100
AcDbEntity
  8
0
100
AcDbLine
 10
-84.30525175
 20
-454.82757640
 30
0.0
 11
284.65740001
 21
-454.82757640
 31
0.0
  0
ELLIPSE
  5
322
100
AcDbEntity
  8
0
100
AcDbEllipse
 10
-84.27175392
 20
-424.80967223
 30
0.0
 11
-20.52081828
 21
-21.92969498
 31
0.0
 40
0.99888215
 41
5.46516866
 42
0.75166367
  0
POLYLINE
  5
323
100
AcDbEntity
  8
0
100
AcDb2dPolyline
 66
     1
  0
VERTEX
  5
324
100
AcDbEntity
  8
0
100
AcDbVertex
100
AcDb2dVertex
 10
-114.28743206
 20
-424.84317255
 30
0.0
  0
VERTEX
  5
325
100
AcDbEntity
  8
0
100
AcDbVertex
100
AcDb2dVertex
 10
-114.28743206
 20
-290.95702003
 30
0.0
  0
SEQEND
  5
326
100
AcDbEntity
  8
0
  0
ELLIPSE
  5
327
100
AcDbEntity
  8
0
100
AcDbEllipse
 10
-84.27175392
 20
-290.99052006
 30
0.0
 11
20.52091253
 21
-21.92960637
 31
0.0
 40
0.99888216
 41
2.38992467
 42
3.95960500
  0
POLYLINE
  5
328
100
AcDbEntity
  8
0
100
AcDb2dPolyline
 66
     1
  0
VERTEX
  5
329
100
AcDbEntity
  8
0
100
AcDbVertex
100
AcDb2dVertex
 10
-84.30525146
 20
-260.97261619
 30
0.0
  0
VERTEX
  5
32A
100
AcDbEntity
  8
0
100
AcDbVertex
100
AcDb2dVertex
 10
284.65739972
 20
-260.97261619
 30
0.0
  0
SEQEND
  5
32B
100
AcDbEntity
  8
0
  0
ELLIPSE
  5
32C
100
AcDbEntity
  8
0
100
AcDbEllipse
 10
284.62390218
 20
-290.99052006
 30
0.0
 11
-20.52091253
 21
-21.92960637
 31
0.0
 40
0.99888216
 41
2.32358031
 42
3.89326064
  0
LINE
  5
32D
100
AcDbEntity
  8
0
100
AcDbLine
 10
314.63958031
 20
-424.84317255
 30
0.0
 11
314.63958031
 21
-290.95702003
 31
0.0
  0
LINE
  5
32E
100
AcDbEntity
  8
0
100
AcDbLine
 10
314.63958031
 20
-424.84317255
 30
0.0
 11
311.13573855
 21
-421.09877113
 31
0.0
  0
LINE
  5
32F
100
AcDbEntity
  8
0
100
AcDbLine
 10
281.15355825
 20
-451.08317498
 30
0.0
 11
284.65740001
 21
-454.82757640
 31
0.0
  0
LINE
  5
330
100
AcDbEntity
  8
0
100
AcDbLine
 10
-84.30525175
 20
-454.82757640
 30
0.0
 11
-80.80140999
 21
-451.08317498
 31
0.0
  0
LINE
  5
331
100
AcDbEntity
  8
0
100
AcDbLine
 10
-80.80140970
 20
-264.71698528
 30
0.0
 11
-84.30525146
 21
-260.97261619
 31
0.0
  0
LINE
  5
332
100
AcDbEntity
  8
0
100
AcDbLine
 10
284.65739972
 20
-260.97261619
 30
0.0
 11
281.15355796
 21
-264.71698528
 31
0.0
  0
LINE
  5
333
100
AcDbEntity
  8
0
100
AcDbLine
 10
311.13573855
 20
-294.70138912
 30
0.0
 11
314.63958031
 21
-290.95702003
 31
0.0
  0
LINE
  5
334
100
AcDbEntity
  8
0
100
AcDbLine
 10
-114.28743206
 20
-290.95702003
 30
0.0
 11
-110.78359030
 21
-294.70138912
 31
0.0
  0
LINE
  5
335
100
AcDbEntity
  8
0
100
AcDbLine
 10
-110.78359030
 20
-421.09877113
 30
0.0
 11
-114.28743206
 21
-424.84317255
 31
0.0
  0
LINE
  5
336
100
AcDbEntity
  8
0
100
AcDbLine
 10
-124.82380380
 20
-250.45426130
 30
0.0
 11
-124.82380380
 21
-465.37149762
 31
0.0
  0
LINE
  5
337
100
AcDbEntity
  8
0
100
AcDbLine
 10
325.17595206
 20
-465.37149762
 30
0.0
 11
-124.82380380
 21
-465.37149762
 31
0.0
  0
LINE
  5
338
100
AcDbEntity
  8
0
100
AcDbLine
 10
325.17595206
 20
-465.37149762
 30
0.0
 11
325.17595206
 21
-250.45426130
 31
0.0
  0
LINE
  5
339
100
AcDbEntity
  8
0
100
AcDbLine
 10
-124.82380380
 20
-250.45426130
 30
0.0
 11
325.17595206
 21
-250.45426130
 31
0.0
  0
ENDBLK
  5
33A
100
AcDbEntity
  8
0
100
AcDbBlockEnd
  0
BLOCK
  5
33B
100
AcDbEntity
  8
0
100
AcDbBlockBegin
  2
FROM3D_00029
 70
    64
 10
0.0
 20
0.0
 30
0.0
  3
FROM3D_00029
  0
INSERT
  5
33C
100
AcDbEntity
  8
0
100
AcDbBlockReference
  2
FROM3D_00030
 10
-88.32185068
 20
-352.90006263
 30
0.0
  0
ENDBLK
  5
33D
100
AcDbEntity
  8
0
100
AcDbBlockEnd
  0
BLOCK
  5
33E
100
AcDbEntity
  8
0
100
AcDbBlockBegin
  2
FROM3D_00030
 70
    64
 10
-88.32185068
 20
-352.90006263
 30
0.0
  3
FROM3D_00030
  0
LINE
  5
33F
100
AcDbEntity
  8
LE_ALL
100
AcDbLine
  6
PHANTOM
 10
-88.32185068
 20
-352.90006263
 30
0.0
 11
-88.32185068
 21
-362.90006263
 31
0.0
  0
LINE
  5
340
100
AcDbEntity
  8
LE_ALL
100
AcDbLine
  6
PHANTOM
 10
-102.32185068
 20
-352.90006263
 30
0.0
 11
-102.32185068
 21
-362.90006263
 31
0.0
  0
LINE
  5
341
100
AcDbEntity
  8
LE_ALL
100
AcDbLine
  6
PHANTOM
 10
288.67399893
 20
-352.90006263
 30
0.0
 11
288.67399893
 21
-362.90006263
 31
0.0
  0
LINE
  5
342
100
AcDbEntity
  8
LE_ALL
100
AcDbLine
  6
PHANTOM
 10
302.67399893
 20
-352.90006263
 30
0.0
 11
302.67399893
 21
-362.90006263
 31
0.0
  0
POLYLINE
  5
343
100
AcDbEntity
  8
LE_ALL
100
AcDb2dPolyline
  6
PHANTOM
 62
     1
 66
     1
  0
VERTEX
  5
344
100
AcDbEntity
  8
LE_ALL
100
AcDbVertex
100
AcDb2dVertex
 10
311.13573855
 20
-294.70138912
 30
0.0
  0
VERTEX
  5
345
100
AcDbEntity
  8
LE_ALL
100
AcDbVertex
100
AcDb2dVertex
 10
311.13573855
 20
-421.09877113
 30
0.0
  0
VERTEX
  5
346
100
AcDbEntity
  8
LE_ALL
100
AcDbVertex
100
AcDb2dVertex
 10
308.05574449
 20
-417.80731708
 30
0.0
  0
VERTEX
  5
347
100
AcDbEntity
  8
LE_ALL
100
AcDbVertex
100
AcDb2dVertex
 10
308.05574449
 20
-362.90006263
 30
0.0
  0
SEQEND
  5
348
100
AcDbEntity
  8
LE_ALL
  0
LINE
  5
349
100
AcDbEntity
  8
LE_ALL
100
AcDbLine
  6
PHANTOM
 62
     1
 10
308.10771714
 20
-352.90006263
 30
0.0
 11
308.10771714
 21
-362.90006263
 31
0.0
  0
POLYLINE
  5
34A
100
AcDbEntity
  8
LE_ALL
100
AcDb2dPolyline
  6
PHANTOM
 62
     1
 66
     1
  0
VERTEX
  5
34B
100
AcDbEntity
  8
LE_ALL
100
AcDbVertex
100
AcDb2dVertex
 10
308.05574449
 20
-352.90006263
 30
0.0
  0
VERTEX
  5
34C
100
AcDbEntity
  8
LE_ALL
100
AcDbVertex
100
AcDb2dVertex
 10
308.05574449
 20
-297.99281475
 30
0.0
  0
VERTEX
  5
34D
100
AcDbEntity
  8
LE_ALL
100
AcDbVertex
100
AcDb2dVertex
 10
311.13573855
 20
-294.70138912
 30
0.0
  0
SEQEND
  5
34E
100
AcDbEntity
  8
LE_ALL
  0
ELLIPSE
  5
34F
100
AcDbEntity
  8
LE_ALL
100
AcDbEllipse
  6
PHANTOM
 62
     1
 10
281.12006042
 20
-294.73488915
 30
0.0
 11
-20.52091253
 21
-21.92960637
 31
0.0
 40
0.99888216
 41
2.32358031
 42
3.89326064
  0
POLYLINE
  5
350
100
AcDbEntity
  8
LE_ALL
100
AcDb2dPolyline
  6
PHANTOM
 62
     1
 66
     1
  0
VERTEX
  5
351
100
AcDbEntity
  8
LE_ALL
100
AcDbVertex
100
AcDb2dVertex
 10
281.15355796
 20
-264.71698528
 30
0.0
  0
VERTEX
  5
352
100
AcDbEntity
  8
LE_ALL
100
AcDbVertex
100
AcDb2dVertex
 10
278.07141443
 20
-268.01070793
 30
0.0
  0
SEQEND
  5
353
100
AcDbEntity
  8
LE_ALL
  0
ELLIPSE
  5
354
100
AcDbEntity
  8
LE_ALL
100
AcDbEllipse
  6
PHANTOM
 62
     1
 10
278.07141443
 20
-297.99281475
 30
0.0
 11
21.90509263
 21
-20.49797348
 31
0.0
 40
0.99888216
 41
0.75278399
 42
2.32246431
  0
LINE
  5
355
100
AcDbEntity
  8
LE_ALL
100
AcDbLine
  6
PHANTOM
 62
     1
 10
299.42094489
 20
-297.99281475
 30
0.0
 11
308.05574449
 21
-297.99281475
 31
0.0
  0
LINE
  5
356
100
AcDbEntity
  8
LE_ALL
100
AcDbLine
  6
PHANTOM
 62
     1
 10
277.69373164
 20
-298.75331049
 30
0.0
 11
299.42094489
 21
-297.99281475
 31
0.0
  0
POLYLINE
  5
357
100
AcDbEntity
  8
LE_ALL
100
AcDb2dPolyline
  6
PHANTOM
 62
     1
 66
     1
  0
VERTEX
  5
358
100
AcDbEntity
  8
LE_ALL
100
AcDbVertex
100
AcDb2dVertex
 10
277.69373164
 20
-298.75331049
 30
0.0
  0
VERTEX
  5
359
100
AcDbEntity
  8
LE_ALL
100
AcDbVertex
100
AcDb2dVertex
 10
257.05402291
 20
-298.75331049
 30
0.0
  0
VERTEX
  5
35A
100
AcDbEntity
  8
LE_ALL
100
AcDbVertex
100
AcDb2dVertex
 10
257.05402291
 20
-352.90006263
 30
0.0
  0
SEQEND
  5
35B
100
AcDbEntity
  8
LE_ALL
  0
LINE
  5
35C
100
AcDbEntity
  8
LE_ALL
100
AcDbLine
  6
PHANTOM
 62
     1
 10
255.77022781
 20
-352.90006263
 30
0.0
 11
255.77022781
 21
-362.90006263
 31
0.0
  0
POLYLINE
  5
35D
100
AcDbEntity
  8
LE_ALL
100
AcDb2dPolyline
  6
PHANTOM
 62
     1
 66
     1
  0
VERTEX
  5
35E
100
AcDbEntity
  8
LE_ALL
100
AcDbVertex
100
AcDb2dVertex
 10
299.42094489
 20
-362.90006263
 30
0.0
  0
VERTEX
  5
35F
100
AcDbEntity
  8
LE_ALL
100
AcDbVertex
100
AcDb2dVertex
 10
299.42094489
 20
-417.80731708
 30
0.0
  0
SEQEND
  5
360
100
AcDbEntity
  8
LE_ALL
  0
ELLIPSE
  5
361
100
AcDbEntity
  8
LE_ALL
100
AcDbEllipse
  6
PHANTOM
 62
     1
 10
278.07141443
 20
-417.80731708
 30
0.0
 11
-1.04942616
 21
-29.98163946
 31
0.0
 40
0.71143595
 41
0.04915986
 42
1.59569307
  0
POLYLINE
  5
362
100
AcDbEntity
  8
LE_ALL
100
AcDb2dPolyline
  6
PHANTOM
 62
     1
 66
     1
  0
VERTEX
  5
363
100
AcDbEntity
  8
LE_ALL
100
AcDbVertex
100
AcDb2dVertex
 10
278.07141443
 20
-447.78942359
 30
0.0
  0
VERTEX
  5
364
100
AcDbEntity
  8
LE_ALL
100
AcDbVertex
100
AcDb2dVertex
 10
281.15355825
 20
-451.08317498
 30
0.0
  0
VERTEX
  5
365
100
AcDbEntity
  8
LE_ALL
100
AcDbVertex
100
AcDb2dVertex
 10
-80.80140999
 20
-451.08317498
 30
0.0
  0
SEQEND
  5
366
100
AcDbEntity
  8
LE_ALL
  0
ELLIPSE
  5
367
100
AcDbEntity
  8
LE_ALL
100
AcDbEllipse
  6
PHANTOM
 62
     1
 10
-80.76791216
 20
-421.06527081
 30
0.0
 11
-20.52081828
 21
-21.92969498
 31
0.0
 40
0.99888215
 41
5.46516866
 42
0.75166367
  0
POLYLINE
  5
368
100
AcDbEntity
  8
LE_ALL
100
AcDb2dPolyline
  6
PHANTOM
 62
     1
 66
     1
  0
VERTEX
  5
369
100
AcDbEntity
  8
LE_ALL
100
AcDbVertex
100
AcDb2dVertex
 10
-110.78359030
 20
-421.09877113
 30
0.0
  0
VERTEX
  5
36A
100
AcDbEntity
  8
LE_ALL
100
AcDbVertex
100
AcDb2dVertex
 10
-110.78359030
 20
-294.70138912
 30
0.0
  0
SEQEND
  5
36B
100
AcDbEntity
  8
LE_ALL
  0
ELLIPSE
  5
36C
100
AcDbEntity
  8
LE_ALL
100
AcDbEllipse
  6
PHANTOM
 62
     1
 10
-80.76791216
 20
-294.73488915
 30
0.0
 11
20.52091253
 21
-21.92960637
 31
0.0
 40
0.99888216
 41
2.38992467
 42
3.95960500
  0
LINE
  5
36D
100
AcDbEntity
  8
LE_ALL
100
AcDbLine
  6
PHANTOM
 62
     1
 10
-80.80140970
 20
-264.71698528
 30
0.0
 11
281.15355796
 21
-264.71698528
 31
0.0
  0
LINE
  5
36E
100
AcDbEntity
  8
LE_ALL
100
AcDbLine
  6
PHANTOM
 62
     1
 10
-77.71926618
 20
-268.01070793
 30
0.0
 11
-80.80140970
 21
-264.71698528
 31
0.0
  0
LINE
  5
36F
100
AcDbEntity
  8
LE_ALL
100
AcDbLine
  6
PHANTOM
 62
     1
 10
-55.99205293
 20
-268.77120368
 30
0.0
 11
-77.71926618
 21
-268.01070793
 31
0.0
  0
LINE
  5
370
100
AcDbEntity
  8
LE_ALL
100
AcDbLine
  6
PHANTOM
 62
     1
 10
100.17607413
 20
-268.89891651
 30
0.0
 11
-55.99205293
 21
-268.77120368
 31
0.0
  0
LINE
  5
371
100
AcDbEntity
  8
LE_ALL
100
AcDbLine
  6
PHANTOM
 62
     1
 10
256.34420119
 20
-268.77120368
 30
0.0
 11
100.17607413
 21
-268.89891651
 31
0.0
  0
LINE
  5
372
100
AcDbEntity
  8
LE_ALL
100
AcDbLine
  6
PHANTOM
 62
     1
 10
278.07141443
 20
-268.01070793
 30
0.0
 11
256.34420119
 21
-268.77120368
 31
0.0
  0
ELLIPSE
  5
373
100
AcDbEntity
  8
LE_ALL
100
AcDbEllipse
  6
PHANTOM
 62
     1
 10
278.07141443
 20
-297.99281475
 30
0.0
 11
1.04941711
 21
-29.98163978
 31
0.0
 40
0.71143596
 41
1.54589980
 42
3.09243322
  0
LINE
  5
374
100
AcDbEntity
  8
LE_ALL
100
AcDbLine
  6
PHANTOM
 62
     1
 10
299.42094489
 20
-297.99281475
 30
0.0
 11
299.42094489
 21
-352.90006263
 31
0.0
  0
POLYLINE
  5
375
100
AcDbEntity
  8
LE_ALL
100
AcDb2dPolyline
  6
PHANTOM
 62
     1
 66
     1
  0
VERTEX
  5
376
100
AcDbEntity
  8
LE_ALL
100
AcDbVertex
100
AcDb2dVertex
 10
277.69373164
 20
-352.90006263
 30
0.0
  0
VERTEX
  5
377
100
AcDbEntity
  8
LE_ALL
100
AcDbVertex
100
AcDb2dVertex
 10
277.69373164
 20
-298.75331049
 30
0.0
  0
SEQEND
  5
378
100
AcDbEntity
  8
LE_ALL
  0
ELLIPSE
  5
379
100
AcDbEntity
  8
LE_ALL
100
AcDbEllipse
  6
PHANTOM
 62
     1
 10
256.34420119
 20
-298.75331049
 30
0.0
 11
1.04941711
 21
-29.98163978
 31
0.0
 40
0.71143596
 41
1.54589980
 42
3.09243322
  0
ELLIPSE
  5
37A
100
AcDbEntity
  8
LE_ALL
100
AcDbEllipse
  6
PHANTOM
 62
     1
 10
256.34420119
 20
-298.75331049
 30
0.0
 11
0.02453371
 21
-29.99998997
 31
0.0
 40
0.02366072
 41
1.57077698
 42
3.10704318
  0
LINE
  5
37B
100
AcDbEntity
  8
LE_ALL
100
AcDbLine
  6
PHANTOM
 62
     1
 10
100.17607413
 20
-298.88160381
 30
0.0
 11
257.05402291
 21
-298.75331049
 31
0.0
  0
LINE
  5
37C
100
AcDbEntity
  8
LE_ALL
100
AcDbLine
  6
PHANTOM
 62
     1
 10
100.17607413
 20
-416.91852034
 30
0.0
 11
100.17607413
 21
-298.88160381
 31
0.0
  0
LINE
  5
37D
100
AcDbEntity
  8
LE_ALL
100
AcDbLine
  6
PHANTOM
 62
     1
 10
257.05402291
 20
-417.04681477
 30
0.0
 11
100.17607413
 21
-416.91852034
 31
0.0
  0
LINE
  5
37E
100
AcDbEntity
  8
LE_ALL
100
AcDbLine
  6
PHANTOM
 62
     1
 10
257.05402291
 20
-362.90006263
 30
0.0
 11
257.05402291
 21
-417.04681477
 31
0.0
  0
LINE
  5
37F
100
AcDbEntity
  8
LE_ALL
100
AcDbLine
  6
PHANTOM
 62
     1
 10
277.69373164
 20
-417.04681477
 30
0.0
 11
257.05402291
 21
-417.04681477
 31
0.0
  0
LINE
  5
380
100
AcDbEntity
  8
LE_ALL
100
AcDbLine
  6
PHANTOM
 62
     1
 10
299.42094489
 20
-417.80731708
 30
0.0
 11
277.69373164
 21
-417.04681477
 31
0.0
  0
LINE
  5
381
100
AcDbEntity
  8
LE_ALL
100
AcDbLine
  6
PHANTOM
 62
     1
 10
299.42094489
 20
-417.80731708
 30
0.0
 11
308.05574449
 21
-417.80731708
 31
0.0
  0
ELLIPSE
  5
382
100
AcDbEntity
  8
LE_ALL
100
AcDbEllipse
  6
PHANTOM
 62
     1
 10
278.07141443
 20
-417.80731708
 30
0.0
 11
21.90518093
 21
20.49787913
 31
0.0
 40
0.99888215
 41
3.96072531
 42
5.53040562
  0
LINE
  5
383
100
AcDbEntity
  8
LE_ALL
100
AcDbLine
  6
PHANTOM
 62
     1
 10
256.34420119
 20
-447.02892128
 30
0.0
 11
278.07141443
 21
-447.78942359
 31
0.0
  0
LINE
  5
384
100
AcDbEntity
  8
LE_ALL
100
AcDbLine
  6
PHANTOM
 62
     1
 10
100.17607413
 20
-446.90120734
 30
0.0
 11
256.34420119
 21
-447.02892128
 31
0.0
  0
LINE
  5
385
100
AcDbEntity
  8
LE_ALL
100
AcDbLine
  6
PHANTOM
 62
     1
 10
-55.99205293
 20
-447.02892128
 30
0.0
 11
100.17607413
 21
-446.90120734
 31
0.0
  0
LINE
  5
386
100
AcDbEntity
  8
LE_ALL
100
AcDbLine
  6
PHANTOM
 62
     1
 10
-77.71926618
 20
-447.78942359
 30
0.0
 11
-55.99205293
 21
-447.02892128
 31
0.0
  0
POLYLINE
  5
387
100
AcDbEntity
  8
LE_ALL
100
AcDb2dPolyline
  6
PHANTOM
 62
     1
 66
     1
  0
VERTEX
  5
388
100
AcDbEntity
  8
LE_ALL
100
AcDbVertex
100
AcDb2dVertex
 10
-80.80140999
 20
-451.08317498
 30
0.0
  0
VERTEX
  5
389
100
AcDbEntity
  8
LE_ALL
100
AcDbVertex
100
AcDb2dVertex
 10
-77.71926618
 20
-447.78942359
 30
0.0
  0
SEQEND
  5
38A
100
AcDbEntity
  8
LE_ALL
  0
ELLIPSE
  5
38B
100
AcDbEntity
  8
LE_ALL
100
AcDbEllipse
  6
PHANTOM
 62
     1
 10
-77.71926618
 20
-417.80731708
 30
0.0
 11
21.90518092
 21
-20.49787913
 31
0.0
 40
0.99888215
 41
3.89437234
 42
5.46405265
  0
LINE
  5
38C
100
AcDbEntity
  8
LE_ALL
100
AcDbLine
  6
PHANTOM
 62
     1
 10
-107.70359623
 20
-417.80731708
 30
0.0
 11
-110.78359030
 21
-421.09877113
 31
0.0
  0
LINE
  5
38D
100
AcDbEntity
  8
LE_ALL
100
AcDbLine
  6
PHANTOM
 62
     1
 10
-107.70359623
 20
-362.90006263
 30
0.0
 11
-107.70359623
 21
-417.80731708
 31
0.0
  0
LINE
  5
38E
100
AcDbEntity
  8
LE_ALL
100
AcDbLine
  6
PHANTOM
 62
     1
 10
-107.75556888
 20
-362.90006263
 30
0.0
 11
-107.75556888
 21
-352.90006263
 31
0.0
  0
LINE
  5
38F
100
AcDbEntity
  8
LE_ALL
100
AcDbLine
  6
PHANTOM
 62
     1
 10
-107.70359623
 20
-297.99281475
 30
0.0
 11
-107.70359623
 21
-352.90006263
 31
0.0
  0
LINE
  5
390
100
AcDbEntity
  8
LE_ALL
100
AcDbLine
  6
PHANTOM
 62
     1
 10
-110.78359030
 20
-294.70138912
 30
0.0
 11
-107.70359623
 21
-297.99281475
 31
0.0
  0
ELLIPSE
  5
391
100
AcDbEntity
  8
LE_ALL
100
AcDbEllipse
  6
PHANTOM
 62
     1
 10
-77.71926618
 20
-297.99281475
 30
0.0
 11
21.90509263
 21
20.49797348
 31
0.0
 40
0.99888216
 41
0.81912834
 42
2.38880867
  0
ELLIPSE
  5
392
100
AcDbEntity
  8
LE_ALL
100
AcDbEllipse
  6
PHANTOM
 62
     1
 10
-77.71926618
 20
-297.99281475
 30
0.0
 11
-1.04941711
 21
-29.98163978
 31
0.0
 40
0.71143596
 41
3.19075209
 42
4.73728551
  0
LINE
  5
393
100
AcDbEntity
  8
LE_ALL
100
AcDbLine
  6
PHANTOM
 62
     1
 10
-99.06879663
 20
-297.99281475
 30
0.0
 11
-77.34158338
 21
-298.75331049
 31
0.0
  0
ELLIPSE
  5
394
100
AcDbEntity
  8
LE_ALL
100
AcDbEllipse
  6
PHANTOM
 62
     1
 10
-55.99205293
 20
-298.75331049
 30
0.0
 11
-1.04941711
 21
-29.98163978
 31
0.0
 40
0.71143596
 41
3.19075209
 42
4.73728551
  0
ELLIPSE
  5
395
100
AcDbEntity
  8
LE_ALL
100
AcDbEllipse
  6
PHANTOM
 62
     1
 10
-55.99205293
 20
-298.75331049
 30
0.0
 11
-0.02453371
 21
-29.99998997
 31
0.0
 40
0.02366072
 41
3.17614213
 42
4.71240833
  0
LINE
  5
396
100
AcDbEntity
  8
LE_ALL
100
AcDbLine
  6
PHANTOM
 62
     1
 10
-56.70187465
 20
-298.75331049
 30
0.0
 11
100.17607413
 21
-298.88160381
 31
0.0
  0
LINE
  5
397
100
AcDbEntity
  8
LE_ALL
100
AcDbLine
  6
PHANTOM
 62
     1
 10
100.17607413
 20
-268.89891651
 30
0.0
 11
100.17607413
 21
-298.88160381
 31
0.0
  0
LINE
  5
398
100
AcDbEntity
  8
LE_ALL
100
AcDbLine
  6
PHANTOM
 62
     1
 10
-56.70187465
 20
-352.90006263
 30
0.0
 11
-56.70187465
 21
-298.75331049
 31
0.0
  0
LINE
  5
399
100
AcDbEntity
  8
LE_ALL
100
AcDbLine
  6
PHANTOM
 62
     1
 10
-55.41807956
 20
-362.90006263
 30
0.0
 11
-55.41807956
 21
-352.90006263
 31
0.0
  0
LINE
  5
39A
100
AcDbEntity
  8
LE_ALL
100
AcDbLine
  6
PHANTOM
 62
     1
 10
-56.70187465
 20
-417.04681477
 30
0.0
 11
-56.70187465
 21
-362.90006263
 31
0.0
  0
LINE
  5
39B
100
AcDbEntity
  8
LE_ALL
100
AcDbLine
  6
PHANTOM
 62
     1
 10
100.17607413
 20
-416.91852034
 30
0.0
 11
-56.70187465
 21
-417.04681477
 31
0.0
  0
LINE
  5
39C
100
AcDbEntity
  8
LE_ALL
100
AcDbLine
  6
PHANTOM
 62
     1
 10
100.17607413
 20
-446.90120734
 30
0.0
 11
100.17607413
 21
-416.91852034
 31
0.0
  0
LINE
  5
39D
100
AcDbEntity
  8
LE_ALL
100
AcDbLine
  6
PHANTOM
 62
     1
 10
-56.70187465
 20
-417.04681477
 30
0.0
 11
-77.34158338
 21
-417.04681477
 31
0.0
  0
LINE
  5
39E
100
AcDbEntity
  8
LE_ALL
100
AcDbLine
  6
PHANTOM
 62
     1
 10
-77.34158338
 20
-362.90006263
 30
0.0
 11
-77.34158338
 21
-417.04681477
 31
0.0
  0
LINE
  5
39F
100
AcDbEntity
  8
LE_ALL
100
AcDbLine
  6
PHANTOM
 62
     1
 10
-99.06879663
 20
-417.80731708
 30
0.0
 11
-99.06879663
 21
-362.90006263
 31
0.0
  0
LINE
  5
3A0
100
AcDbEntity
  8
LE_ALL
100
AcDbLine
  6
PHANTOM
 62
     1
 10
-77.34158338
 20
-417.04681477
 30
0.0
 11
-99.06879663
 21
-417.80731708
 31
0.0
  0
ELLIPSE
  5
3A1
100
AcDbEntity
  8
LE_ALL
100
AcDbEllipse
  6
PHANTOM
 62
     1
 10
-55.99205293
 20
-417.04681477
 30
0.0
 11
1.04942616
 21
-29.98163946
 31
0.0
 40
0.71143595
 41
4.68749224
 42
6.23402545
  0
ELLIPSE
  5
3A2
100
AcDbEntity
  8
LE_ALL
100
AcDbEllipse
  6
PHANTOM
 62
     1
 10
-55.99205293
 20
-417.04681477
 30
0.0
 11
0.02453392
 21
-29.99998997
 31
0.0
 40
0.02366072
 41
4.71236963
 42
6.24863554
  0
LINE
  5
3A3
100
AcDbEntity
  8
LE_ALL
100
AcDbLine
  6
PHANTOM
 62
     1
 10
-99.06879663
 20
-417.80731708
 30
0.0
 11
-107.70359623
 21
-417.80731708
 31
0.0
  0
ELLIPSE
  5
3A4
100
AcDbEntity
  8
LE_ALL
100
AcDbEllipse
  6
PHANTOM
 62
     1
 10
-77.71926618
 20
-417.80731708
 30
0.0
 11
1.04942616
 21
-29.98163946
 31
0.0
 40
0.71143595
 41
4.68749224
 42
6.23402545
  0
LINE
  5
3A5
100
AcDbEntity
  8
LE_ALL
100
AcDbLine
  6
PHANTOM
 62
     1
 10
-91.36066211
 20
-362.90006263
 30
0.0
 11
-55.41807956
 21
-362.90006263
 31
0.0
  0
LINE
  5
3A6
100
AcDbEntity
  8
LE_ALL
100
AcDbLine
  6
PHANTOM
 62
     1
 10
-91.36066211
 20
-352.90006263
 30
0.0
 11
-91.36066211
 21
-362.90006263
 31
0.0
  0
LINE
  5
3A7
100
AcDbEntity
  8
LE_ALL
100
AcDbLine
  6
PHANTOM
 62
     1
 10
-91.36066211
 20
-352.90006263
 30
0.0
 11
-55.41807956
 21
-352.90006263
 31
0.0
  0
LINE
  5
3A8
100
AcDbEntity
  8
LE_ALL
100
AcDbLine
  6
PHANTOM
 62
     1
 10
-110.47516142
 20
-352.90006263
 30
0.0
 11
-91.36066211
 21
-352.90006263
 31
0.0
  0
LINE
  5
3A9
100
AcDbEntity
  8
LE_ALL
100
AcDbLine
  6
PHANTOM
 10
-110.47516142
 20
-352.90006263
 30
0.0
 11
-110.47516142
 21
-362.90006263
 31
0.0
  0
LINE
  5
3AA
100
AcDbEntity
  8
LE_ALL
100
AcDbLine
  6
PHANTOM
 62
     1
 10
-91.36066211
 20
-362.90006263
 30
0.0
 11
-110.47516142
 21
-362.90006263
 31
0.0
  0
POLYLINE
  5
3AB
100
AcDbEntity
  8
LE_ALL
100
AcDb2dPolyline
  6
PHANTOM
 62
     1
 66
     1
  0
VERTEX
  5
3AC
100
AcDbEntity
  8
LE_ALL
100
AcDbVertex
100
AcDb2dVertex
 10
-99.06879663
 20
-352.90006263
 30
0.0
  0
VERTEX
  5
3AD
100
AcDbEntity
  8
LE_ALL
100
AcDbVertex
100
AcDb2dVertex
 10
-99.06879663
 20
-297.99281475
 30
0.0
  0
VERTEX
  5
3AE
100
AcDbEntity
  8
LE_ALL
100
AcDbVertex
100
AcDb2dVertex
 10
-107.70359623
 20
-297.99281475
 30
0.0
  0
SEQEND
  5
3AF
100
AcDbEntity
  8
LE_ALL
  0
LINE
  5
3B0
100
AcDbEntity
  8
LE_ALL
100
AcDbLine
  6
PHANTOM
 62
     1
 10
-77.34158338
 20
-298.75331049
 30
0.0
 11
-77.34158338
 21
-352.90006263
 31
0.0
  0
LINE
  5
3B1
100
AcDbEntity
  8
LE_ALL
100
AcDbLine
  6
PHANTOM
 62
     1
 10
-56.70187465
 20
-298.75331049
 30
0.0
 11
-77.34158338
 21
-298.75331049
 31
0.0
  0
ELLIPSE
  5
3B2
100
AcDbEntity
  8
LE_ALL
100
AcDbEllipse
  6
PHANTOM
 62
     1
 10
256.34420119
 20
-417.04681477
 30
0.0
 11
-1.04942616
 21
-29.98163946
 31
0.0
 40
0.71143595
 41
0.04915986
 42
1.59569307
  0
LINE
  5
3B3
100
AcDbEntity
  8
LE_ALL
100
AcDbLine
  6
PHANTOM
 62
     1
 10
277.69373164
 20
-417.04681477
 30
0.0
 11
277.69373164
 21
-362.90006263
 31
0.0
  0
ELLIPSE
  5
3B4
100
AcDbEntity
  8
LE_ALL
100
AcDbEllipse
  6
PHANTOM
 62
     1
 10
256.34420119
 20
-417.04681477
 30
0.0
 11
-0.02453392
 21
-29.99998997
 31
0.0
 40
0.02366072
 41
0.03454977
 42
1.57081568
  0
ELLIPSE
  5
3B5
100
AcDbEntity
  8
LE_ALL
100
AcDbEllipse
  6
PHANTOM
 62
     1
 10
281.12006042
 20
-421.06527081
 30
0.0
 11
20.52081828
 21
-21.92969499
 31
0.0
 40
0.99888215
 41
5.53152164
 42
0.81801664
  0
LINE
  5
3B6
100
AcDbEntity
  8
LE_ALL
100
AcDbLine
  6
PHANTOM
 62
     1
 10
291.71281036
 20
-362.90006263
 30
0.0
 11
255.77022781
 21
-362.90006263
 31
0.0
  0
LINE
  5
3B7
100
AcDbEntity
  8
LE_ALL
100
AcDbLine
  6
PHANTOM
 62
     1
 10
291.71281036
 20
-352.90006263
 30
0.0
 11
291.71281036
 21
-362.90006263
 31
0.0
  0
LINE
  5
3B8
100
AcDbEntity
  8
LE_ALL
100
AcDbLine
  6
PHANTOM
 62
     1
 10
291.71281036
 20
-352.90006263
 30
0.0
 11
255.77022781
 21
-352.90006263
 31
0.0
  0
LINE
  5
3B9
100
AcDbEntity
  8
LE_ALL
100
AcDbLine
  6
PHANTOM
 62
     1
 10
310.82730968
 20
-352.90006263
 30
0.0
 11
291.71281036
 21
-352.90006263
 31
0.0
  0
LINE
  5
3BA
100
AcDbEntity
  8
LE_ALL
100
AcDbLine
  6
PHANTOM
 10
310.82730968
 20
-352.90006263
 30
0.0
 11
310.82730968
 21
-362.90006263
 31
0.0
  0
LINE
  5
3BB
100
AcDbEntity
  8
LE_ALL
100
AcDbLine
  6
PHANTOM
 62
     1
 10
291.71281036
 20
-362.90006263
 30
0.0
 11
310.82730968
 21
-362.90006263
 31
0.0
  0
ENDBLK
  5
3BC
100
AcDbEntity
  8
0
100
AcDbBlockEnd
  0
BLOCK
  5
3BD
100
AcDbEntity
  8
0
100
AcDbBlockBegin
  2
ANS3D05_00031
 70
    64
 10
0.0
 20
0.0
 30
0.0
  3
ANS3D05_00031
  0
INSERT
  5
3BE
100
AcDbEntity
  8
0
100
AcDbBlockReference
  2
FIG3D05_00032
 10
0.0
 20
0.0
 30
0.0
  0
ENDBLK
  5
3BF
100
AcDbEntity
  8
0
100
AcDbBlockEnd
  0
BLOCK
  5
3C0
100
AcDbEntity
  8
0
100
AcDbBlockBegin
  2
FIG3D05_00032
 70
    64
 10
0.0
 20
0.0
 30
0.0
  3
FIG3D05_00032
  0
INSERT
  5
3C1
100
AcDbEntity
  8
0
100
AcDbBlockReference
  2
FROM3D_00033
 10
0.0
 20
0.0
 30
0.0
  0
ENDBLK
  5
3C2
100
AcDbEntity
  8
0
100
AcDbBlockEnd
  0
BLOCK
  5
3C3
100
AcDbEntity
  8
0
100
AcDbBlockBegin
  2
FROM3D_00033
 70
    64
 10
0.0
 20
0.0
 30
0.0
  3
FROM3D_00033
  0
INSERT
  5
3C4
100
AcDbEntity
  8
0
100
AcDbBlockReference
  2
FROM3D_00034
 10
0.0
 20
0.0
 30
0.0
  0
INSERT
  5
3C5
100
AcDbEntity
  8
0
100
AcDbBlockReference
  2
FROM3D_00039
 10
0.0
 20
0.0
 30
0.0
  0
ENDBLK
  5
3C6
100
AcDbEntity
  8
0
100
AcDbBlockEnd
  0
BLOCK
  5
3C7
100
AcDbEntity
  8
0
100
AcDbBlockBegin
  2
FROM3D_00034
 70
    64
 10
0.0
 20
0.0
 30
0.0
  3
FROM3D_00034
  0
INSERT
  5
3C8
100
AcDbEntity
  8
0
100
AcDbBlockReference
  2
FROM3D_00035
 10
0.0
 20
0.0
 30
0.0
  0
INSERT
  5
3C9
100
AcDbEntity
  8
0
100
AcDbBlockReference
  2
FROM3D_00037
 10
0.0
 20
0.0
 30
0.0
  0
ENDBLK
  5
3CA
100
AcDbEntity
  8
0
100
AcDbBlockEnd
  0
BLOCK
  5
3CB
100
AcDbEntity
  8
0
100
AcDbBlockBegin
  2
FROM3D_00035
 70
    64
 10
0.0
 20
0.0
 30
0.0
  3
FROM3D_00035
  0
INSERT
  5
3CC
100
AcDbEntity
  8
0
100
AcDbBlockReference
  2
FROM3D_00036
 10
554.62651717
 20
-725.18397420
 30
0.0
  0
ENDBLK
  5
3CD
100
AcDbEntity
  8
0
100
AcDbBlockEnd
  0
BLOCK
  5
3CE
100
AcDbEntity
  8
0
100
AcDbBlockBegin
  2
FROM3D_00036
 70
    64
 10
554.62651717
 20
-725.18397420
 30
0.0
  3
FROM3D_00036
  0
ELLIPSE
  5
3CF
100
AcDbEntity
  8
0
100
AcDbEllipse
 10
557.79422737
 20
-726.68270004
 30
0.0
 11
5.50000000
 21
-.00000000
 31
0.0
 40
0.33333333
 41
2.18455881
 42
3.14159265
  0
ELLIPSE
  5
3D0
100
AcDbEntity
  8
0
100
AcDbEllipse
 10
557.79422737
 20
-726.68270004
 30
0.0
 11
5.50000000
 21
0.0
 31
0.0
 40
0.33333333
 41
3.14159265
 42
4.09862650
  0
POLYLINE
  5
3D1
100
AcDbEntity
  8
0
100
AcDb2dPolyline
 66
     1
  0
VERTEX
  5
3D2
100
AcDbEntity
  8
0
100
AcDbVertex
100
AcDb2dVertex
 10
554.62651717
 20
-731.98523491
 30
0.0
  0
VERTEX
  5
3D3
100
AcDbEntity
  8
0
100
AcDbVertex
100
AcDb2dVertex
 10
537.17064873
 20
-729.78605722
 30
0.0
  0
VERTEX
  5
3D4
100
AcDbEntity
  8
0
100
AcDbVertex
100
AcDb2dVertex
 10
537.17064873
 20
-746.75653152
 30
0.0
  0
SEQEND
  5
3D5
100
AcDbEntity
  8
0
  0
LINE
  5
3D6
100
AcDbEntity
  8
0
100
AcDbLine
 10
554.62651717
 20
-748.95576423
 30
0.0
 11
537.17064873
 21
-746.75653152
 31
0.0
  0
LINE
  5
3D7
100
AcDbEntity
  8
0
100
AcDbLine
 10
548.48436665
 20
-719.80819791
 30
0.0
 11
537.17064873
 21
-729.78605722
 31
0.0
  0
LINE
  5
3D8
100
AcDbEntity
  8
0
100
AcDbLine
 10
554.62651717
 20
-720.58203481
 30
0.0
 11
548.48436665
 21
-719.80819791
 31
0.0
  0
LINE
  5
3D9
100
AcDbEntity
  8
0
100
AcDbLine
 10
474.58670811
 20
-669.43059661
 30
0.0
 11
474.58670811
 21
-724.64011966
 31
0.0
  0
LINE
  5
3DA
100
AcDbEntity
  8
0
100
AcDbLine
 10
537.17064873
 20
-732.52494151
 30
0.0
 11
474.58670811
 21
-724.64011966
 31
0.0
  0
ELLIPSE
  5
3DB
100
AcDbEntity
  8
0
100
AcDbEllipse
 10
772.93957327
 20
-753.78841926
 30
0.0
 11
5.50000000
 21
0.0
 31
0.0
 40
0.33333333
 41
0.0
 42
3.14159265
  0
ELLIPSE
  5
3DC
100
AcDbEntity
  8
0
100
AcDbEllipse
 10
772.93957327
 20
-753.78841926
 30
0.0
 11
5.50000000
 21
0.0
 31
0.0
 40
0.33333333
 41
3.14159265
 42
0.0
  0
POLYLINE
  5
3DD
100
AcDbEntity
  8
0
100
AcDb2dPolyline
 66
     1
  0
VERTEX
  5
3DE
100
AcDbEntity
  8
0
100
AcDbVertex
100
AcDb2dVertex
 10
682.77108711
 20
-695.65935776
 30
0.0
  0
VERTEX
  5
3DF
100
AcDbEntity
  8
0
100
AcDbVertex
100
AcDb2dVertex
 10
682.77108193
 20
-690.94531712
 30
0.0
  0
VERTEX
  5
3E0
100
AcDbEntity
  8
0
100
AcDbVertex
100
AcDb2dVertex
 10
676.23040834
 20
-696.71366228
 30
0.0
  0
VERTEX
  5
3E1
100
AcDbEntity
  8
0
100
AcDbVertex
100
AcDb2dVertex
 10
676.23040834
 20
-772.13838560
 30
0.0
  0
SEQEND
  5
3E2
100
AcDbEntity
  8
0
  0
LINE
  5
3E3
100
AcDbEntity
  8
0
100
AcDbLine
 10
690.01896110
 20
-759.97799538
 30
0.0
 11
676.23040834
 21
-772.13838560
 31
0.0
  0
LINE
  5
3E4
100
AcDbEntity
  8
0
100
AcDbLine
 10
690.01896110
 20
-759.97799538
 30
0.0
 11
690.01896110
 21
-696.57250476
 31
0.0
  0
LINE
  5
3E5
100
AcDbEntity
  8
0
100
AcDbLine
 10
740.15557555
 20
-766.29460423
 30
0.0
 11
690.01896110
 21
-759.97799538
 31
0.0
  0
LINE
  5
3E6
100
AcDbEntity
  8
0
100
AcDbLine
 10
554.62651717
 20
-756.81776169
 30
0.0
 11
676.23040834
 21
-772.13838560
 31
0.0
  0
LINE
  5
3E7
100
AcDbEntity
  8
0
100
AcDbLine
 10
554.62651717
 20
-681.39303837
 30
0.0
 11
554.62651717
 21
-756.81776169
 31
0.0
  0
LINE
  5
3E8
100
AcDbEntity
  8
0
100
AcDbLine
 10
561.16721686
 20
-675.62467019
 30
0.0
 11
554.62651717
 21
-681.39303837
 31
0.0
  0
LINE
  5
3E9
100
AcDbEntity
  8
0
100
AcDbLine
 10
445.17595206
 20
-661.01114443
 30
0.0
 11
561.16721686
 21
-675.62467019
 31
0.0
  0
POLYLINE
  5
3EA
100
AcDbEntity
  8
0
100
AcDb2dPolyline
 66
     1
  0
VERTEX
  5
3EB
100
AcDbEntity
  8
0
100
AcDbVertex
100
AcDb2dVertex
 10
942.09689730
 20
-647.00240948
 30
0.0
  0
VERTEX
  5
3EC
100
AcDbEntity
  8
0
100
AcDbVertex
100
AcDb2dVertex
 10
942.12615868
 20
-647.00609607
 30
0.0
  0
VERTEX
  5
3ED
100
AcDbEntity
  8
0
100
AcDbVertex
100
AcDb2dVertex
 10
942.12615868
 20
-651.72014128
 30
0.0
  0
VERTEX
  5
3EE
100
AcDbEntity
  8
0
100
AcDbVertex
100
AcDb2dVertex
 10
866.11217970
 20
-718.75816946
 30
0.0
  0
SEQEND
  5
3EF
100
AcDbEntity
  8
0
  0
LINE
  5
3F0
100
AcDbEntity
  8
0
100
AcDbLine
 10
866.11217970
 20
-714.04412425
 30
0.0
 11
866.11217970
 21
-718.75816946
 31
0.0
  0
POLYLINE
  5
3F1
100
AcDbEntity
  8
0
100
AcDb2dPolyline
 66
     1
  0
VERTEX
  5
3F2
100
AcDbEntity
  8
0
100
AcDbVertex
100
AcDb2dVertex
 10
682.77108193
 20
-690.94531712
 30
0.0
  0
VERTEX
  5
3F3
100
AcDbEntity
  8
0
100
AcDbVertex
100
AcDb2dVertex
 10
866.11217970
 20
-714.04412425
 30
0.0
  0
VERTEX
  5
3F4
100
AcDbEntity
  8
0
100
AcDbVertex
100
AcDb2dVertex
 10
942.12615868
 20
-647.00609607
 30
0.0
  0
SEQEND
  5
3F5
100
AcDbEntity
  8
0
  0
POLYLINE
  5
3F6
100
AcDbEntity
  8
0
100
AcDb2dPolyline
 66
     1
  0
VERTEX
  5
3F7
100
AcDbEntity
  8
0
100
AcDbVertex
100
AcDb2dVertex
 10
866.11217970
 20
-718.75816946
 30
0.0
  0
VERTEX
  5
3F8
100
AcDbEntity
  8
0
100
AcDbVertex
100
AcDb2dVertex
 10
750.12097787
 20
-704.14459595
 30
0.0
  0
VERTEX
  5
3F9
100
AcDbEntity
  8
0
100
AcDbVertex
100
AcDb2dVertex
 10
736.08970136
 20
-702.37687696
 30
0.0
  0
VERTEX
  5
3FA
100
AcDbEntity
  8
0
100
AcDbVertex
100
AcDb2dVertex
 10
682.77108711
 20
-695.65935776
 30
0.0
  0
SEQEND
  5
3FB
100
AcDbEntity
  8
0
  0
LINE
  5
3FC
100
AcDbEntity
  8
0
100
AcDbLine
 10
736.08970136
 20
-702.37687696
 30
0.0
 11
740.15560018
 21
-755.35961079
 31
0.0
  0
LINE
  5
3FD
100
AcDbEntity
  8
0
100
AcDbLine
 10
754.18678017
 20
-757.12683586
 30
0.0
 11
740.15560018
 21
-755.35961079
 31
0.0
  0
LINE
  5
3FE
100
AcDbEntity
  8
0
100
AcDbLine
 10
754.18678017
 20
-757.12683586
 30
0.0
 11
750.12097787
 21
-704.14459595
 31
0.0
  0
POLYLINE
  5
3FF
100
AcDbEntity
  8
0
100
AcDb2dPolyline
 66
     1
  0
VERTEX
  5
400
100
AcDbEntity
  8
0
100
AcDbVertex
100
AcDb2dVertex
 10
867.46081803
 20
-717.56878225
 30
0.0
  0
VERTEX
  5
401
100
AcDbEntity
  8
0
100
AcDbVertex
100
AcDb2dVertex
 10
867.46081803
 20
-774.13751999
 30
0.0
  0
VERTEX
  5
402
100
AcDbEntity
  8
0
100
AcDbVertex
100
AcDb2dVertex
 10
793.56297808
 20
-764.82728327
 30
0.0
  0
SEQEND
  5
403
100
AcDbEntity
  8
0
  0
LINE
  5
404
100
AcDbEntity
  8
0
100
AcDbLine
 10
782.24920756
 20
-777.63352763
 30
0.0
 11
796.36921938
 21
-765.18083583
 31
0.0
  0
LINE
  5
405
100
AcDbEntity
  8
0
100
AcDbLine
 10
782.24920756
 20
-777.63352763
 30
0.0
 11
740.15556196
 21
-772.33022678
 31
0.0
  0
LINE
  5
406
100
AcDbEntity
  8
0
100
AcDbLine
 10
740.15560018
 20
-755.35961079
 30
0.0
 11
740.15556196
 21
-772.33022678
 31
0.0
  0
LINE
  5
407
100
AcDbEntity
  8
0
100
AcDbLine
 10
782.24920756
 20
-760.66228094
 30
0.0
 11
782.24920756
 21
-777.63352763
 31
0.0
  0
POLYLINE
  5
408
100
AcDbEntity
  8
0
100
AcDb2dPolyline
 66
     1
  0
VERTEX
  5
409
100
AcDbEntity
  8
0
100
AcDbVertex
100
AcDb2dVertex
 10
782.24920756
 20
-760.66228094
 30
0.0
  0
VERTEX
  5
40A
100
AcDbEntity
  8
0
100
AcDbVertex
100
AcDb2dVertex
 10
754.18678017
 20
-757.12683586
 30
0.0
  0
VERTEX
  5
40B
100
AcDbEntity
  8
0
100
AcDbVertex
100
AcDb2dVertex
 10
765.50053617
 20
-747.14961836
 30
0.0
  0
VERTEX
  5
40C
100
AcDbEntity
  8
0
100
AcDbVertex
100
AcDb2dVertex
 10
765.50053617
 20
-706.08224555
 30
0.0
  0
SEQEND
  5
40D
100
AcDbEntity
  8
0
  0
LINE
  5
40E
100
AcDbEntity
  8
0
100
AcDbLine
 10
793.56297808
 20
-750.68514764
 30
0.0
 11
765.50053617
 21
-747.14961836
 31
0.0
  0
POLYLINE
  5
40F
100
AcDbEntity
  8
0
100
AcDb2dPolyline
 66
     1
  0
VERTEX
  5
410
100
AcDbEntity
  8
0
100
AcDbVertex
100
AcDb2dVertex
 10
793.56297808
 20
-764.82728327
 30
0.0
  0
VERTEX
  5
411
100
AcDbEntity
  8
0
100
AcDbVertex
100
AcDb2dVertex
 10
793.56297808
 20
-750.68514764
 30
0.0
  0
VERTEX
  5
412
100
AcDbEntity
  8
0
100
AcDbVertex
100
AcDb2dVertex
 10
782.24920756
 20
-760.66228094
 30
0.0
  0
SEQEND
  5
413
100
AcDbEntity
  8
0
  0
LINE
  5
414
100
AcDbEntity
  8
0
100
AcDbLine
 10
867.46081803
 20
-774.13751999
 30
0.0
 11
912.71555005
 21
-734.22649502
 31
0.0
  0
LINE
  5
415
100
AcDbEntity
  8
0
100
AcDbLine
 10
912.71555005
 20
-677.65786005
 30
0.0
 11
912.71555005
 21
-734.22649502
 31
0.0
  0
LINE
  5
416
100
AcDbEntity
  8
0
100
AcDbLine
 10
445.17595206
 20
-661.01114443
 30
0.0
 11
445.17595206
 21
-665.72518964
 31
0.0
  0
LINE
  5
417
100
AcDbEntity
  8
0
100
AcDbLine
 10
556.49015453
 20
-679.74946093
 30
0.0
 11
445.17595206
 21
-665.72518964
 31
0.0
  0
LINE
  5
418
100
AcDbEntity
  8
0
100
AcDbLine
 10
554.62651717
 20
-681.39303837
 30
0.0
 11
676.23040834
 21
-696.71366228
 31
0.0
  0
ENDBLK
  5
419
100
AcDbEntity
  8
0
100
AcDbBlockEnd
  0
BLOCK
  5
41A
100
AcDbEntity
  8
0
100
AcDbBlockBegin
  2
FROM3D_00037
 70
    64
 10
0.0
 20
0.0
 30
0.0
  3
FROM3D_00037
  0
INSERT
  5
41B
100
AcDbEntity
  8
0
100
AcDbBlockReference
  2
FROM3D_00038
 10
513.63169034
 20
-394.17273108
 30
0.0
  0
ENDBLK
  5
41C
100
AcDbEntity
  8
0
100
AcDbBlockEnd
  0
BLOCK
  5
41D
100
AcDbEntity
  8
0
100
AcDbBlockBegin
  2
FROM3D_00038
 70
    64
 10
513.63169034
 20
-394.17273108
 30
0.0
  3
FROM3D_00038
  0
ELLIPSE
  5
41E
100
AcDbEntity
  8
0
100
AcDbEllipse
 10
509.00162555
 20
-388.92273108
 30
0.0
 11
4.63006479
 21
-5.25000000
 31
0.0
 40
0.88191710
 41
3.14159265
 42
6.28318531
  0
ELLIPSE
  5
41F
100
AcDbEntity
  8
0
100
AcDbEllipse
 10
509.00162555
 20
-388.92273108
 30
0.0
 11
4.63006479
 21
-5.25000000
 31
0.0
 40
0.88191710
 41
6.28318531
 42
3.14159265
  0
ELLIPSE
  5
420
100
AcDbEntity
  8
0
100
AcDbEllipse
 10
512.53715945
 20
-385.80468326
 30
0.0
 11
4.63006479
 21
-5.25000000
 31
0.0
 40
0.88191710
 41
3.53333762
 42
5.89144034
  0
ELLIPSE
  5
421
100
AcDbEntity
  8
0
100
AcDbEllipse
 10
874.74475277
 20
-435.00203386
 30
0.0
 11
4.63006479
 21
-5.25000000
 31
0.0
 40
0.88191710
 41
3.14159265
 42
0.00000000
  0
ELLIPSE
  5
422
100
AcDbEntity
  8
0
100
AcDbEllipse
 10
874.74475277
 20
-435.00203386
 30
0.0
 11
4.63006479
 21
-5.25000000
 31
0.0
 40
0.88191710
 41
6.28318531
 42
3.14159265
  0
ELLIPSE
  5
423
100
AcDbEntity
  8
0
100
AcDbEllipse
 10
878.28028668
 20
-431.88398603
 30
0.0
 11
4.63006479
 21
-5.25000000
 31
0.0
 40
0.88191710
 41
3.53333762
 42
5.89144034
  0
ELLIPSE
  5
424
100
AcDbEntity
  8
0
100
AcDbEllipse
 10
842.51998135
 20
-680.93333850
 30
0.0
 11
30.00487512
 21
-0.00887476
 31
0.0
 40
0.33359791
 41
4.35207265
 42
5.92175296
  0
LINE
  5
425
100
AcDbEntity
  8
0
100
AcDbLine
 10
486.80542605
 20
-646.81434682
 30
0.0
 11
831.93838391
 21
-690.29701234
 31
0.0
  0
ELLIPSE
  5
426
100
AcDbEntity
  8
0
100
AcDbEllipse
 10
497.44969221
 20
-637.45856851
 30
0.0
 11
30.02703326
 21
0.00996866
 31
0.0
 40
0.33310573
 41
3.12659055
 42
4.34991040
  0
ELLIPSE
  5
427
100
AcDbEntity
  8
0
100
AcDbEllipse
 10
889.83219632
 20
-639.20788690
 30
0.0
 11
30.02703313
 21
0.00996850
 31
0.0
 40
0.33310573
 41
5.92182275
 42
0.01500207
  0
LINE
  5
428
100
AcDbEntity
  8
0
100
AcDbLine
 10
870.58523315
 20
-684.48116566
 30
0.0
 11
917.92113633
 21
-642.73482303
 31
0.0
  0
LINE
  5
429
100
AcDbEntity
  8
0
100
AcDbLine
 10
870.58523315
 20
-684.48116566
 30
0.0
 11
866.91416922
 21
-489.53656783
 31
0.0
  0
ELLIPSE
  5
42A
100
AcDbEntity
  8
0
100
AcDbEllipse
 10
838.86639671
 20
-486.91694429
 30
0.0
 11
29.99468214
 21
0.56483943
 31
0.0
 40
0.29175524
 41
4.34569194
 42
5.91537225
  0
LINE
  5
42B
100
AcDbEntity
  8
0
100
AcDbLine
 10
828.26612130
 20
-495.28876135
 30
0.0
 11
831.93838391
 21
-690.29701234
 31
0.0
  0
LINE
  5
42C
100
AcDbEntity
  8
0
100
AcDbLine
 10
808.21105249
 20
-471.74058281
 30
0.0
 11
828.26612130
 21
-495.28876135
 31
0.0
  0
LINE
  5
42D
100
AcDbEntity
  8
0
100
AcDbLine
 10
662.17429963
 20
-449.81146770
 30
0.0
 11
808.21105249
 21
-471.74058281
 31
0.0
  0
LINE
  5
42E
100
AcDbEntity
  8
0
100
AcDbLine
 10
516.04723939
 20
-434.93140226
 30
0.0
 11
662.17429963
 21
-449.81146770
 31
0.0
  0
LINE
  5
42F
100
AcDbEntity
  8
0
100
AcDbLine
 10
495.45441424
 20
-453.35842753
 30
0.0
 11
516.04723939
 21
-434.93140226
 31
0.0
  0
POLYLINE
  5
430
100
AcDbEntity
  8
0
100
AcDb2dPolyline
 66
     1
  0
VERTEX
  5
431
100
AcDbEntity
  8
0
100
AcDbVertex
100
AcDb2dVertex
 10
486.80542605
 20
-646.81434682
 30
0.0
  0
VERTEX
  5
432
100
AcDbEntity
  8
0
100
AcDbVertex
100
AcDb2dVertex
 10
495.45441424
 20
-453.35842753
 30
0.0
  0
SEQEND
  5
433
100
AcDbEntity
  8
0
  0
ELLIPSE
  5
434
100
AcDbEntity
  8
0
100
AcDbEllipse
 10
506.05468965
 20
-444.98661046
 30
0.0
 11
20.00497080
 21
-22.35623276
 31
0.0
 40
0.44957224
 41
3.14159265
 42
4.68472333
  0
LINE
  5
435
100
AcDbEntity
  8
0
100
AcDbLine
 10
506.64254400
 20
-404.20335244
 30
0.0
 11
486.04971885
 21
-422.63037770
 31
0.0
  0
ELLIPSE
  5
436
100
AcDbEntity
  8
0
100
AcDbEllipse
 10
526.64751480
 20
-426.55958520
 30
0.0
 11
20.00497080
 21
-22.35623276
 31
0.0
 40
0.44957224
 41
3.14159265
 42
4.68472333
  0
ELLIPSE
  5
437
100
AcDbEntity
  8
0
100
AcDbEllipse
 10
526.64751480
 20
-426.55958520
 30
0.0
 11
-3.03917273
 21
-29.84566014
 31
0.0
 40
0.34040578
 41
3.49491599
 42
5.03118190
  0
POLYLINE
  5
438
100
AcDbEntity
  8
0
100
AcDb2dPolyline
 66
     1
  0
VERTEX
  5
439
100
AcDbEntity
  8
0
100
AcDbVertex
100
AcDb2dVertex
 10
525.98353738
 20
-398.19957895
 30
0.0
  0
VERTEX
  5
43A
100
AcDbEntity
  8
0
100
AcDbVertex
100
AcDb2dVertex
 10
545.12730519
 20
-381.31636270
 30
0.0
  0
VERTEX
  5
43B
100
AcDbEntity
  8
0
100
AcDbVertex
100
AcDb2dVertex
 10
546.32818554
 20
-381.43901306
 30
0.0
  0
VERTEX
  5
43C
100
AcDbEntity
  8
0
100
AcDbVertex
100
AcDb2dVertex
 10
549.86371945
 20
-378.32096524
 30
0.0
  0
SEQEND
  5
43D
100
AcDbEntity
  8
0
  0
LINE
  5
43E
100
AcDbEntity
  8
0
100
AcDbLine
 10
548.62744949
 20
-367.17510486
 30
0.0
 11
538.43268115
 21
-376.16604542
 31
0.0
  0
ELLIPSE
  5
43F
100
AcDbEntity
  8
0
100
AcDbEllipse
 10
568.47058432
 20
-389.67510486
 30
0.0
 11
19.84313483
 21
-22.50000000
 31
0.0
 40
0.88191710
 41
2.37985742
 42
3.14159265
  0
ELLIPSE
  5
440
100
AcDbEntity
  8
0
100
AcDbEllipse
 10
568.47058432
 20
-389.67510486
 30
0.0
 11
-3.05714089
 21
-29.84382498
 31
0.0
 40
0.34184783
 41
3.14159265
 42
3.49512137
  0
LINE
  5
441
100
AcDbEntity
  8
0
100
AcDbLine
 10
571.52772521
 20
-359.83127987
 30
0.0
 11
718.17926255
 21
-374.85396584
 31
0.0
  0
ELLIPSE
  5
442
100
AcDbEntity
  8
0
100
AcDbEllipse
 10
714.50733757
 20
-404.63481359
 30
0.0
 11
-3.74866840
 21
-29.77208686
 31
0.0
 40
0.33326768
 41
3.13386923
 42
3.14931608
  0
POLYLINE
  5
443
100
AcDbEntity
  8
0
100
AcDb2dPolyline
 66
     1
  0
VERTEX
  5
444
100
AcDbEntity
  8
0
100
AcDbVertex
100
AcDb2dVertex
 10
718.33252576
 20
-374.87326355
 30
0.0
  0
VERTEX
  5
445
100
AcDbEntity
  8
0
100
AcDbVertex
100
AcDb2dVertex
 10
865.07079221
 20
-396.81412529
 30
0.0
  0
SEQEND
  5
446
100
AcDbEntity
  8
0
  0
ELLIPSE
  5
447
100
AcDbEntity
  8
0
100
AcDbEllipse
 10
860.63439742
 20
-426.48428541
 30
0.0
 11
-4.43639479
 21
-29.67016012
 31
0.0
 40
0.32463198
 41
3.14159265
 42
3.51056821
  0
LINE
  5
448
100
AcDbEntity
  8
0
100
AcDbLine
 10
861.29837484
 20
-398.29158575
 30
0.0
 11
842.26433381
 21
-415.07803209
 31
0.0
  0
LINE
  5
449
100
AcDbEntity
  8
0
100
AcDbLine
 10
840.95372668
 20
-414.99485897
 30
0.0
 11
837.41819278
 21
-418.11290679
 31
0.0
  0
LINE
  5
44A
100
AcDbEntity
  8
0
100
AcDbLine
 10
871.03940015
 20
-420.24655980
 30
0.0
 11
837.41819278
 21
-418.11290679
 31
0.0
  0
ELLIPSE
  5
44B
100
AcDbEntity
  8
0
100
AcDbEllipse
 10
872.08192775
 20
-437.31589809
 30
0.0
 11
11.90587457
 21
-13.49999283
 31
0.0
 40
0.88191710
 41
0.71054034
 42
2.41815131
  0
LINE
  5
44C
100
AcDbEntity
  8
0
100
AcDbLine
 10
886.37543116
 20
-473.93779370
 30
0.0
 11
888.87222312
 21
-440.70046897
 31
0.0
  0
LINE
  5
44D
100
AcDbEntity
  8
0
100
AcDbLine
 10
886.32681520
 20
-472.41622332
 30
0.0
 11
886.37543116
 21
-473.93779370
 31
0.0
  0
ELLIPSE
  5
44E
100
AcDbEntity
  8
0
100
AcDbEllipse
 10
858.27904269
 20
-469.79659977
 30
0.0
 11
19.84313483
 21
-22.50000000
 31
0.0
 40
0.88191710
 41
0.81772082
 42
1.56434898
  0
POLYLINE
  5
44F
100
AcDbEntity
  8
0
100
AcDb2dPolyline
 66
     1
  0
VERTEX
  5
450
100
AcDbEntity
  8
0
100
AcDbVertex
100
AcDb2dVertex
 10
878.24969977
 20
-452.44202777
 30
0.0
  0
VERTEX
  5
451
100
AcDbEntity
  8
0
100
AcDbVertex
100
AcDb2dVertex
 10
858.83705379
 20
-469.56237229
 30
0.0
  0
SEQEND
  5
452
100
AcDbEntity
  8
0
  0
ELLIPSE
  5
453
100
AcDbEntity
  8
0
100
AcDbEllipse
 10
838.86639671
 20
-486.91694429
 30
0.0
 11
22.83944684
 21
19.45146956
 31
0.0
 40
0.01864166
 41
0.49096447
 42
2.03749768
  0
LINE
  5
454
100
AcDbEntity
  8
0
100
AcDbLine
 10
858.83705379
 20
-469.56237229
 30
0.0
 11
838.78198498
 21
-446.01419374
 31
0.0
  0
ELLIPSE
  5
455
100
AcDbEntity
  8
0
100
AcDbEllipse
 10
818.81132790
 20
-463.36876575
 30
0.0
 11
22.83944684
 21
19.45146956
 31
0.0
 40
0.01864166
 41
0.49096447
 42
2.03749768
  0
ELLIPSE
  5
456
100
AcDbEntity
  8
0
100
AcDbEllipse
 10
818.81132790
 20
-463.36876575
 30
0.0
 11
-4.45490281
 21
-29.66738682
 31
0.0
 40
0.32607403
 41
3.51077118
 42
5.04703708
  0
POLYLINE
  5
457
100
AcDbEntity
  8
0
100
AcDb2dPolyline
 66
     1
  0
VERTEX
  5
458
100
AcDbEntity
  8
0
100
AcDbVertex
100
AcDb2dVertex
 10
819.47530532
 20
-435.17606609
 30
0.0
  0
VERTEX
  5
459
100
AcDbEntity
  8
0
100
AcDbVertex
100
AcDb2dVertex
 10
672.77478028
 20
-413.14727787
 30
0.0
  0
VERTEX
  5
45A
100
AcDbEntity
  8
0
100
AcDbVertex
100
AcDb2dVertex
 10
714.50713233
 20
-376.34280282
 30
0.0
  0
VERTEX
  5
45B
100
AcDbEntity
  8
0
100
AcDbVertex
100
AcDb2dVertex
 10
861.29837484
 20
-398.29158575
 30
0.0
  0
SEQEND
  5
45C
100
AcDbEntity
  8
0
  0
ELLIPSE
  5
45D
100
AcDbEntity
  8
0
100
AcDbEllipse
 10
860.63439742
 20
-426.48428541
 30
0.0
 11
19.84313483
 21
-22.50000000
 31
0.0
 40
0.88191710
 41
1.56434898
 42
2.33253156
  0
LINE
  5
45E
100
AcDbEntity
  8
0
100
AcDbLine
 10
871.73931652
 20
-416.94855937
 30
0.0
 11
880.60505450
 21
-409.12971340
 31
0.0
  0
LINE
  5
45F
100
AcDbEntity
  8
0
100
AcDbLine
 10
901.19787733
 20
-432.20363748
 30
0.0
 11
892.21681933
 21
-440.12418615
 31
0.0
  0
LINE
  5
460
100
AcDbEntity
  8
0
100
AcDbLine
 10
880.60505450
 20
-409.12971340
 30
0.0
 11
901.19787733
 21
-432.20363748
 31
0.0
  0
ELLIPSE
  5
461
100
AcDbEntity
  8
0
100
AcDbEllipse
 10
860.63439742
 20
-426.48428541
 30
0.0
 11
22.38241603
 21
19.97567152
 31
0.0
 40
0.02471821
 41
5.79215037
 42
0.00000000
  0
POLYLINE
  5
462
100
AcDbEntity
  8
0
100
AcDb2dPolyline
 66
     1
  0
VERTEX
  5
463
100
AcDbEntity
  8
0
100
AcDbVertex
100
AcDb2dVertex
 10
883.01681345
 20
-406.50861389
 30
0.0
  0
VERTEX
  5
464
100
AcDbEntity
  8
0
100
AcDbVertex
100
AcDb2dVertex
 10
903.60963629
 20
-429.58253796
 30
0.0
  0
SEQEND
  5
465
100
AcDbEntity
  8
0
  0
ELLIPSE
  5
466
100
AcDbEntity
  8
0
100
AcDbEllipse
 10
881.22722025
 20
-449.55820948
 30
0.0
 11
22.38241603
 21
19.97567152
 31
0.0
 40
0.02471821
 41
5.79215037
 42
0.0
  0
ELLIPSE
  5
467
100
AcDbEntity
  8
0
100
AcDbEllipse
 10
881.22722025
 20
-449.55820948
 30
0.0
 11
19.84313483
 21
-22.50000000
 31
0.0
 40
0.88191710
 41
0.81772082
 42
1.56434898
  0
LINE
  5
468
100
AcDbEntity
  8
0
100
AcDbLine
 10
909.27499276
 20
-452.17783303
 30
0.0
 11
917.92113633
 21
-642.73482303
 31
0.0
  0
LINE
  5
469
100
AcDbEntity
  8
0
100
AcDbLine
 10
890.03682458
 20
-469.14430259
 30
0.0
 11
909.27499276
 21
-452.17783303
 31
0.0
  0
LINE
  5
46A
100
AcDbEntity
  8
0
100
AcDbLine
 10
889.91096507
 20
-470.81974588
 30
0.0
 11
886.37543116
 21
-473.93779370
 31
0.0
  0
LINE
  5
46B
100
AcDbEntity
  8
0
100
AcDbLine
 10
889.91096507
 20
-470.81974588
 30
0.0
 11
892.40774373
 21
-437.58259811
 31
0.0
  0
POLYLINE
  5
46C
100
AcDbEntity
  8
0
100
AcDb2dPolyline
 66
     1
  0
VERTEX
  5
46D
100
AcDbEntity
  8
0
100
AcDbVertex
100
AcDb2dVertex
 10
888.87222312
 20
-440.70046897
 30
0.0
  0
VERTEX
  5
46E
100
AcDbEntity
  8
0
100
AcDbVertex
100
AcDb2dVertex
 10
892.40774373
 20
-437.58259811
 30
0.0
  0
SEQEND
  5
46F
100
AcDbEntity
  8
0
  0
ELLIPSE
  5
470
100
AcDbEntity
  8
0
100
AcDbEllipse
 10
875.61746166
 20
-434.19785027
 30
0.0
 11
11.90587457
 21
-13.49999283
 31
0.0
 40
0.88191710
 41
0.71052979
 42
2.41815131
  0
LINE
  5
471
100
AcDbEntity
  8
0
100
AcDbLine
 10
874.57493406
 20
-417.12851198
 30
0.0
 11
871.03940015
 21
-420.24655980
 31
0.0
  0
LINE
  5
472
100
AcDbEntity
  8
0
100
AcDbLine
 10
874.57493406
 20
-417.12851198
 30
0.0
 11
840.95372668
 21
-414.99485897
 31
0.0
  0
ELLIPSE
  5
473
100
AcDbEntity
  8
0
100
AcDbEllipse
 10
881.22722025
 20
-449.55820948
 30
0.0
 11
29.96916695
 21
1.35979121
 31
0.0
 40
0.35263409
 41
5.90682068
 42
0.00000000
  0
POLYLINE
  5
474
100
AcDbEntity
  8
0
100
AcDb2dPolyline
 66
     1
  0
VERTEX
  5
475
100
AcDbEntity
  8
0
100
AcDbVertex
100
AcDb2dVertex
 10
903.60963629
 20
-429.58253796
 30
0.0
 42
-0.172505808
  0
VERTEX
  5
476
100
AcDbEntity
  8
0
100
AcDbVertex
100
AcDb2dVertex
 10
911.19638721
 20
-448.19841827
 30
0.0
  0
VERTEX
  5
477
100
AcDbEntity
  8
0
100
AcDbVertex
100
AcDb2dVertex
 10
919.85580073
 20
-639.04787179
 30
0.0
  0
SEQEND
  5
478
100
AcDbEntity
  8
0
  0
ARC
  5
479
100
AcDbEntity
  8
0
100
AcDbCircle
 10
860.63439742
 20
-426.48428541
 30
0.0
 40
30.00000000
100
AcDbArc
 50
41.748007213
 51
81.495920673
  0
ELLIPSE
  5
47A
100
AcDbEntity
  8
0
100
AcDbEllipse
 10
714.50733757
 20
-404.63481359
 30
0.0
 11
-3.74866840
 21
-29.77208686
 31
0.0
 40
0.33326768
 41
3.14931608
 42
3.50284479
  0
LINE
  5
47B
100
AcDbEntity
  8
0
100
AcDbLine
 10
567.80660690
 20
-361.31509861
 30
0.0
 11
714.50713233
 21
-376.34280282
 31
0.0
  0
LINE
  5
47C
100
AcDbEntity
  8
0
100
AcDbLine
 10
548.75974703
 20
-378.11285011
 30
0.0
 11
567.80660690
 21
-361.31509861
 31
0.0
  0
POLYLINE
  5
47D
100
AcDbEntity
  8
0
100
AcDb2dPolyline
 66
     1
  0
VERTEX
  5
47E
100
AcDbEntity
  8
0
100
AcDbVertex
100
AcDb2dVertex
 10
672.77478028
 20
-413.14727787
 30
0.0
  0
VERTEX
  5
47F
100
AcDbEntity
  8
0
100
AcDbVertex
100
AcDb2dVertex
 10
525.98353738
 20
-398.19957895
 30
0.0
  0
SEQEND
  5
480
100
AcDbEntity
  8
0
  0
ELLIPSE
  5
481
100
AcDbEntity
  8
0
100
AcDbEllipse
 10
526.64751480
 20
-426.55958520
 30
0.0
 11
19.84313483
 21
-22.50000000
 31
0.0
 40
0.88191710
 41
2.37985742
 42
3.14159265
  0
LINE
  5
482
100
AcDbEntity
  8
0
100
AcDbLine
 10
525.94814778
 20
-387.17636894
 30
0.0
 11
506.80437997
 21
-404.05958520
 31
0.0
  0
LINE
  5
483
100
AcDbEntity
  8
0
100
AcDbLine
 10
496.51140211
 20
-413.26897633
 30
0.0
 11
494.87415520
 21
-391.06137827
 31
0.0
  0
ELLIPSE
  5
484
100
AcDbEntity
  8
0
100
AcDbEllipse
 10
511.66445057
 20
-391.90756415
 30
0.0
 11
11.90587457
 21
-13.49999283
 31
0.0
 40
0.88191710
 41
3.14159265
 42
4.00184864
  0
ELLIPSE
  5
485
100
AcDbEntity
  8
0
100
AcDbEllipse
 10
511.66445057
 20
-391.90756415
 30
0.0
 11
11.90587457
 21
-13.49999283
 31
0.0
 40
0.88191710
 41
2.29423767
 42
3.14159265
  0
LINE
  5
486
100
AcDbEntity
  8
0
100
AcDbLine
 10
516.24251207
 20
-371.98287030
 30
0.0
 11
512.70697817
 21
-375.10091812
 31
0.0
  0
LINE
  5
487
100
AcDbEntity
  8
0
100
AcDbLine
 10
516.24251207
 20
-371.98287030
 30
0.0
 11
549.86371945
 21
-378.32096524
 31
0.0
  0
ELLIPSE
  5
488
100
AcDbEntity
  8
0
100
AcDbEllipse
 10
515.19998447
 20
-388.78951632
 30
0.0
 11
11.90587457
 21
-13.49999283
 31
0.0
 40
0.88191710
 41
2.29423767
 42
3.14159265
  0
LINE
  5
489
100
AcDbEntity
  8
0
100
AcDbLine
 10
503.29410990
 20
-375.28952350
 30
0.0
 11
499.75857600
 21
-378.40757132
 31
0.0
  0
LINE
  5
48A
100
AcDbEntity
  8
0
100
AcDbLine
 10
512.70697817
 20
-375.10091812
 30
0.0
 11
546.32818554
 21
-381.43901306
 31
0.0
  0
ELLIPSE
  5
48B
100
AcDbEntity
  8
0
100
AcDbEllipse
 10
545.79128261
 20
-409.67636894
 30
0.0
 11
19.84313483
 21
-22.50000000
 31
0.0
 40
0.88191710
 41
2.37985742
 42
3.14159265
  0
ARC
  5
48C
100
AcDbEntity
  8
0
100
AcDbCircle
 10
526.64751480
 20
-426.55958520
 30
0.0
 40
30.00000000
100
AcDbArc
 50
131.409622109
 51
131.823053076
  0
ELLIPSE
  5
48D
100
AcDbEntity
  8
0
100
AcDbEllipse
 10
672.77457505
 20
-441.43965064
 30
0.0
 11
-3.74904039
 21
-29.77242700
 31
0.0
 40
0.33325915
 41
3.50284358
 42
5.03910949
  0
LINE
  5
48E
100
AcDbEntity
  8
0
100
AcDbLine
 10
838.61907313
 20
-418.29284983
 30
0.0
 11
819.47530532
 21
-435.17606609
 31
0.0
  0
POLYLINE
  5
48F
100
AcDbEntity
  8
0
100
AcDb2dPolyline
 66
     1
  0
VERTEX
  5
490
100
AcDbEntity
  8
0
100
AcDbVertex
100
AcDb2dVertex
 10
837.41819278
 20
-418.11290679
 30
0.0
  0
VERTEX
  5
491
100
AcDbEntity
  8
0
100
AcDbVertex
100
AcDb2dVertex
 10
838.61907313
 20
-418.29284983
 30
0.0
  0
SEQEND
  5
492
100
AcDbEntity
  8
0
  0
ELLIPSE
  5
493
100
AcDbEntity
  8
0
100
AcDbEllipse
 10
837.95509571
 20
-446.48554949
 30
0.0
 11
19.84313483
 21
-22.50000000
 31
0.0
 40
0.88191710
 41
1.56434898
 42
2.33253156
  0
LINE
  5
494
100
AcDbEntity
  8
0
100
AcDbLine
 10
857.92575279
 20
-429.13097749
 30
0.0
 11
878.24969977
 21
-452.44202777
 31
0.0
  0
LINE
  5
495
100
AcDbEntity
  8
0
100
AcDbLine
 10
838.78198498
 20
-446.01419374
 30
0.0
 11
857.92575279
 21
-429.13097749
 31
0.0
  0
ELLIPSE
  5
496
100
AcDbEntity
  8
0
100
AcDbEllipse
 10
818.81132790
 20
-463.36876575
 30
0.0
 11
19.84313483
 21
-22.50000000
 31
0.0
 40
0.88191710
 41
1.56434898
 42
2.33253156
  0
ELLIPSE
  5
497
100
AcDbEntity
  8
0
100
AcDbEllipse
 10
838.86639671
 20
-486.91694429
 30
0.0
 11
19.84313483
 21
-22.50000000
 31
0.0
 40
0.88191710
 41
0.81772082
 42
1.56434898
  0
LINE
  5
498
100
AcDbEntity
  8
0
100
AcDbLine
 10
866.91416922
 20
-489.53656783
 30
0.0
 11
886.32681520
 21
-472.41622332
 31
0.0
  0
ARC
  5
499
100
AcDbEntity
  8
0
100
AcDbCircle
 10
568.47058432
 20
-389.67510486
 30
0.0
 40
30.00000000
100
AcDbArc
 50
84.151138067
 51
90.000000000
  0
ARC
  5
49A
100
AcDbEntity
  8
0
100
AcDbCircle
 10
568.47058432
 20
-389.67510486
 30
0.0
 40
30.00000000
100
AcDbArc
 50
90.000000000
 51
131.409622109
  0
ARC
  5
49B
100
AcDbEntity
  8
0
100
AcDbCircle
 10
506.05468965
 20
-444.98661046
 30
0.0
 40
30.00000000
100
AcDbArc
 50
131.823053076
 51
177.440136489
  0
ELLIPSE
  5
49C
100
AcDbEntity
  8
0
100
AcDbEllipse
 10
506.05468965
 20
-444.98661046
 30
0.0
 11
29.97006306
 21
-1.33989553
 31
0.0
 40
0.31328709
 41
3.14159265
 42
4.36491251
  0
LINE
  5
49D
100
AcDbEntity
  8
0
100
AcDbLine
 10
476.08462659
 20
-443.64671493
 30
0.0
 11
467.42598806
 21
-637.31848793
 31
0.0
  0
LINE
  5
49E
100
AcDbEntity
  8
0
100
AcDbLine
 10
467.96655337
 20
-625.22741364
 30
0.0
 11
445.17595206
 21
-645.32683473
 31
0.0
  0
LINE
  5
49F
100
AcDbEntity
  8
0
100
AcDbLine
 10
866.11217970
 20
-698.35981455
 30
0.0
 11
445.17595206
 21
-645.32683473
 31
0.0
  0
LINE
  5
4A0
100
AcDbEntity
  8
0
100
AcDbLine
 10
866.11217970
 20
-698.35981455
 30
0.0
 11
942.09689730
 21
-631.34759248
 31
0.0
  0
POLYLINE
  5
4A1
100
AcDbEntity
  8
0
100
AcDb2dPolyline
 66
     1
  0
VERTEX
  5
4A2
100
AcDbEntity
  8
0
100
AcDbVertex
100
AcDb2dVertex
 10
919.37653583
 20
-628.48509600
 30
0.0
  0
VERTEX
  5
4A3
100
AcDbEntity
  8
0
100
AcDbVertex
100
AcDb2dVertex
 10
942.09689730
 20
-631.34759248
 30
0.0
  0
VERTEX
  5
4A4
100
AcDbEntity
  8
0
100
AcDbVertex
100
AcDb2dVertex
 10
942.09689730
 20
-647.03190218
 30
0.0
  0
SEQEND
  5
4A5
100
AcDbEntity
  8
0
  0
LINE
  5
4A6
100
AcDbEntity
  8
0
100
AcDbLine
 10
866.11217970
 20
-714.04412425
 30
0.0
 11
942.09689730
 21
-647.03190218
 31
0.0
  0
LINE
  5
4A7
100
AcDbEntity
  8
0
100
AcDbLine
 10
655.64406588
 20
-687.52763434
 30
0.0
 11
866.11217970
 21
-714.04412425
 31
0.0
  0
LINE
  5
4A8
100
AcDbEntity
  8
0
100
AcDbLine
 10
445.17595206
 20
-661.01114443
 30
0.0
 11
655.64406588
 21
-687.52763434
 31
0.0
  0
LINE
  5
4A9
100
AcDbEntity
  8
0
100
AcDbLine
 10
445.17595206
 20
-645.32683473
 30
0.0
 11
445.17595206
 21
-661.01114443
 31
0.0
  0
LINE
  5
4AA
100
AcDbEntity
  8
0
100
AcDbLine
 10
866.11217970
 20
-714.04412425
 30
0.0
 11
866.11217970
 21
-698.35981455
 31
0.0
  0
ENDBLK
  5
4AB
100
AcDbEntity
  8
0
100
AcDbBlockEnd
  0
BLOCK
  5
4AC
100
AcDbEntity
  8
0
100
AcDbBlockBegin
  2
FROM3D_00039
 70
    64
 10
0.0
 20
0.0
 30
0.0
  3
FROM3D_00039
  0
INSERT
  5
4AD
100
AcDbEntity
  8
0
100
AcDbBlockReference
  2
FROM3D_00040
 10
870.11468798
 20
-220.44842663
 30
0.0
  0
ENDBLK
  5
4AE
100
AcDbEntity
  8
0
100
AcDbBlockEnd
  0
BLOCK
  5
4AF
100
AcDbEntity
  8
0
100
AcDbBlockBegin
  2
FROM3D_00040
 70
    64
 10
870.11468798
 20
-220.44842663
 30
0.0
  3
FROM3D_00040
  0
ELLIPSE
  5
4B0
100
AcDbEntity
  8
LE_ALL
100
AcDbEllipse
  6
PHANTOM
 62
     1
 10
874.74475277
 20
-225.69842663
 30
0.0
 11
4.63006479
 21
-5.25000000
 31
0.0
 40
0.88191710
 41
3.14159265
 42
6.28318531
  0
ELLIPSE
  5
4B1
100
AcDbEntity
  8
LE_ALL
100
AcDbEllipse
  6
PHANTOM
 62
     1
 10
874.74475277
 20
-225.69842663
 30
0.0
 11
4.63006479
 21
-5.25000000
 31
0.0
 40
0.88191710
 41
0.00000000
 42
3.14159265
  0
LINE
  5
4B2
100
AcDbEntity
  8
LE_ALL
100
AcDbLine
  6
PHANTOM
 10
873.65022188
 20
-217.33037880
 30
0.0
 11
870.11468798
 21
-220.44842663
 31
0.0
  0
ELLIPSE
  5
4B3
100
AcDbEntity
  8
LE_ALL
100
AcDbEllipse
  6
PHANTOM
 62
     1
 10
878.28028668
 20
-222.58037880
 30
0.0
 11
4.63006479
 21
-5.25000000
 31
0.0
 40
0.88191710
 41
3.14159265
 42
6.28318531
  0
LINE
  5
4B4
100
AcDbEntity
  8
LE_ALL
100
AcDbLine
  6
PHANTOM
 10
882.91035147
 20
-227.83037880
 30
0.0
 11
879.37481756
 21
-230.94842663
 31
0.0
  0
ELLIPSE
  5
4B5
100
AcDbEntity
  8
LE_ALL
100
AcDbEllipse
  6
PHANTOM
 62
     1
 10
509.00162555
 20
-179.61912385
 30
0.0
 11
4.63006479
 21
-5.25000000
 31
0.0
 40
0.88191710
 41
3.14159265
 42
0.00000000
  0
ELLIPSE
  5
4B6
100
AcDbEntity
  8
LE_ALL
100
AcDbEllipse
  6
PHANTOM
 62
     1
 10
509.00162555
 20
-179.61912385
 30
0.0
 11
4.63006479
 21
-5.25000000
 31
0.0
 40
0.88191710
 41
0.00000000
 42
3.14159265
  0
LINE
  5
4B7
100
AcDbEntity
  8
LE_ALL
100
AcDbLine
  6
PHANTOM
 10
517.16722425
 20
-181.75107602
 30
0.0
 11
513.63169034
 21
-184.86912385
 31
0.0
  0
ELLIPSE
  5
4B8
100
AcDbEntity
  8
LE_ALL
100
AcDbEllipse
  6
PHANTOM
 62
     1
 10
512.53715945
 20
-176.50107602
 30
0.0
 11
4.63006479
 21
-5.25000000
 31
0.0
 40
0.88191710
 41
3.14159265
 42
6.28318531
  0
LINE
  5
4B9
100
AcDbEntity
  8
LE_ALL
100
AcDbLine
  6
PHANTOM
 10
507.90709466
 20
-171.25107602
 30
0.0
 11
504.37156075
 21
-174.36912385
 31
0.0
  0
POLYLINE
  5
4BA
100
AcDbEntity
  8
LE_ALL
100
AcDb2dPolyline
  6
PHANTOM
 62
     1
 66
     1
  0
VERTEX
  5
4BB
100
AcDbEntity
  8
LE_ALL
100
AcDbVertex
100
AcDb2dVertex
 10
913.31975809
 20
-332.01897577
 30
0.0
  0
VERTEX
  5
4BC
100
AcDbEntity
  8
LE_ALL
100
AcDbVertex
100
AcDb2dVertex
 10
868.63153512
 20
-371.43028395
 30
0.0
  0
VERTEX
  5
4BD
100
AcDbEntity
  8
LE_ALL
100
AcDbVertex
100
AcDb2dVertex
 10
866.91416922
 20
-280.23296060
 30
0.0
  0
VERTEX
  5
4BE
100
AcDbEntity
  8
LE_ALL
100
AcDbVertex
100
AcDb2dVertex
 10
886.32681520
 20
-263.11261609
 30
0.0
  0
VERTEX
  5
4BF
100
AcDbEntity
  8
LE_ALL
100
AcDbVertex
100
AcDb2dVertex
 10
886.37543116
 20
-264.63418647
 30
0.0
  0
SEQEND
  5
4C0
100
AcDbEntity
  8
LE_ALL
  0
LINE
  5
4C1
100
AcDbEntity
  8
LE_ALL
100
AcDbLine
  6
PHANTOM
 62
     1
 10
889.91096507
 20
-261.51613865
 30
0.0
 11
886.37543116
 21
-264.63418647
 31
0.0
  0
POLYLINE
  5
4C2
100
AcDbEntity
  8
LE_ALL
100
AcDb2dPolyline
  6
PHANTOM
 62
     1
 66
     1
  0
VERTEX
  5
4C3
100
AcDbEntity
  8
LE_ALL
100
AcDbVertex
100
AcDb2dVertex
 10
889.91096507
 20
-261.51613865
 30
0.0
  0
VERTEX
  5
4C4
100
AcDbEntity
  8
LE_ALL
100
AcDbVertex
100
AcDb2dVertex
 10
889.86234910
 20
-259.99456826
 30
0.0
  0
VERTEX
  5
4C5
100
AcDbEntity
  8
LE_ALL
100
AcDbVertex
100
AcDb2dVertex
 10
909.27499276
 20
-242.87422579
 30
0.0
  0
VERTEX
  5
4C6
100
AcDbEntity
  8
LE_ALL
100
AcDbVertex
100
AcDb2dVertex
 10
913.31975809
 20
-332.01897577
 30
0.0
  0
SEQEND
  5
4C7
100
AcDbEntity
  8
LE_ALL
  0
ELLIPSE
  5
4C8
100
AcDbEntity
  8
LE_ALL
100
AcDbEllipse
  6
PHANTOM
 62
     1
 10
885.23081809
 20
-328.49203965
 30
0.0
 11
30.02703313
 21
0.00996850
 31
0.0
 40
0.33310573
 41
5.92182275
 42
0.01500207
  0
LINE
  5
4C9
100
AcDbEntity
  8
LE_ALL
100
AcDbLine
  6
PHANTOM
 10
911.19638721
 20
-238.89481104
 30
0.0
 11
915.25442249
 21
-328.33202454
 31
0.0
  0
ELLIPSE
  5
4CA
100
AcDbEntity
  8
LE_ALL
100
AcDbEllipse
  6
PHANTOM
 62
     1
 10
881.22722025
 20
-240.25460225
 30
0.0
 11
29.96916695
 21
1.35979121
 31
0.0
 40
0.35263409
 41
5.90682068
 42
0.00000000
  0
ELLIPSE
  5
4CB
100
AcDbEntity
  8
LE_ALL
100
AcDbEllipse
  6
PHANTOM
 62
     1
 10
881.22722025
 20
-240.25460225
 30
0.0
 11
19.84313483
 21
-22.50000000
 31
0.0
 40
0.88191710
 41
0.81772082
 42
1.56434898
  0
ELLIPSE
  5
4CC
100
AcDbEntity
  8
LE_ALL
100
AcDbEllipse
  6
PHANTOM
 62
     1
 10
881.22722025
 20
-240.25460225
 30
0.0
 11
22.38241603
 21
19.97567152
 31
0.0
 40
0.02471821
 41
5.79215037
 42
0.00000000
  0
ARC
  5
4CD
100
AcDbEntity
  8
LE_ALL
100
AcDbCircle
  6
PHANTOM
 10
881.22722025
 20
-240.25460225
 30
0.0
 40
30.00000000
100
AcDbArc
 50
2.597899987
 51
41.737244793
  0
LINE
  5
4CE
100
AcDbEntity
  8
LE_ALL
100
AcDbLine
  6
PHANTOM
 10
883.01681345
 20
-197.20500666
 30
0.0
 11
903.60963629
 21
-220.27893073
 31
0.0
  0
ELLIPSE
  5
4CF
100
AcDbEntity
  8
LE_ALL
100
AcDbEllipse
  6
PHANTOM
 62
     1
 10
860.63439742
 20
-217.18067817
 30
0.0
 11
22.38241603
 21
19.97567152
 31
0.0
 40
0.02471821
 41
5.79215037
 42
6.28318531
  0
POLYLINE
  5
4D0
100
AcDbEntity
  8
LE_ALL
100
AcDb2dPolyline
  6
PHANTOM
 62
     1
 66
     1
  0
VERTEX
  5
4D1
100
AcDbEntity
  8
LE_ALL
100
AcDbVertex
100
AcDb2dVertex
 10
880.60505450
 20
-199.82610617
 30
0.0
  0
VERTEX
  5
4D2
100
AcDbEntity
  8
LE_ALL
100
AcDbVertex
100
AcDb2dVertex
 10
901.19787733
 20
-222.90003025
 30
0.0
  0
VERTEX
  5
4D3
100
AcDbEntity
  8
LE_ALL
100
AcDbVertex
100
AcDb2dVertex
 10
881.78523368
 20
-240.02037272
 30
0.0
  0
VERTEX
  5
4D4
100
AcDbEntity
  8
LE_ALL
100
AcDbVertex
100
AcDb2dVertex
 10
861.46128669
 20
-216.70932243
 30
0.0
  0
SEQEND
  5
4D5
100
AcDbEntity
  8
LE_ALL
  0
ELLIPSE
  5
4D6
100
AcDbEntity
  8
LE_ALL
100
AcDbEllipse
  6
PHANTOM
 62
     1
 10
841.49062961
 20
-234.06389443
 30
0.0
 11
19.84313483
 21
-22.50000000
 31
0.0
 40
0.88191710
 41
1.56434898
 42
2.33253156
  0
LINE
  5
4D7
100
AcDbEntity
  8
LE_ALL
100
AcDbLine
  6
PHANTOM
 62
     1
 10
842.15460704
 20
-205.87119478
 30
0.0
 11
840.95372668
 21
-205.69125174
 31
0.0
  0
LINE
  5
4D8
100
AcDbEntity
  8
LE_ALL
100
AcDbLine
  6
PHANTOM
 62
     1
 10
874.57493406
 20
-207.82490475
 30
0.0
 11
840.95372668
 21
-205.69125174
 31
0.0
  0
ELLIPSE
  5
4D9
100
AcDbEntity
  8
LE_ALL
100
AcDbEllipse
  6
PHANTOM
 62
     1
 10
875.61746166
 20
-224.89424303
 30
0.0
 11
11.90587457
 21
-13.49999283
 31
0.0
 40
0.88191710
 41
0.71052979
 42
2.41815131
  0
LINE
  5
4DA
100
AcDbEntity
  8
LE_ALL
100
AcDbLine
  6
PHANTOM
 62
     1
 10
889.91096507
 20
-261.51613865
 30
0.0
 11
892.40774373
 21
-228.27899088
 31
0.0
  0
LINE
  5
4DB
100
AcDbEntity
  8
LE_ALL
100
AcDbLine
  6
PHANTOM
 62
     1
 10
888.87222312
 20
-231.39686174
 30
0.0
 11
892.40774373
 21
-228.27899088
 31
0.0
  0
LINE
  5
4DC
100
AcDbEntity
  8
LE_ALL
100
AcDbLine
  6
PHANTOM
 62
     1
 10
886.37543116
 20
-264.63418647
 30
0.0
 11
888.87222312
 21
-231.39686174
 31
0.0
  0
ELLIPSE
  5
4DD
100
AcDbEntity
  8
LE_ALL
100
AcDbEllipse
  6
PHANTOM
 62
     1
 10
872.08192775
 20
-228.01229086
 30
0.0
 11
11.90587457
 21
-13.49999283
 31
0.0
 40
0.88191710
 41
0.71054034
 42
2.41815131
  0
POLYLINE
  5
4DE
100
AcDbEntity
  8
LE_ALL
100
AcDb2dPolyline
  6
PHANTOM
 62
     1
 66
     1
  0
VERTEX
  5
4DF
100
AcDbEntity
  8
LE_ALL
100
AcDbVertex
100
AcDb2dVertex
 10
871.03940015
 20
-210.94295257
 30
0.0
  0
VERTEX
  5
4E0
100
AcDbEntity
  8
LE_ALL
100
AcDbVertex
100
AcDb2dVertex
 10
837.41819278
 20
-208.80929956
 30
0.0
  0
VERTEX
  5
4E1
100
AcDbEntity
  8
LE_ALL
100
AcDbVertex
100
AcDb2dVertex
 10
838.61907313
 20
-208.98924260
 30
0.0
  0
SEQEND
  5
4E2
100
AcDbEntity
  8
LE_ALL
  0
ELLIPSE
  5
4E3
100
AcDbEntity
  8
LE_ALL
100
AcDbEllipse
  6
PHANTOM
 62
     1
 10
837.95509571
 20
-237.18194226
 30
0.0
 11
19.84313483
 21
-22.50000000
 31
0.0
 40
0.88191710
 41
1.56434898
 42
2.33253156
  0
POLYLINE
  5
4E4
100
AcDbEntity
  8
LE_ALL
100
AcDb2dPolyline
  6
PHANTOM
 62
     1
 66
     1
  0
VERTEX
  5
4E5
100
AcDbEntity
  8
LE_ALL
100
AcDbVertex
100
AcDb2dVertex
 10
857.92575279
 20
-219.82737025
 30
0.0
  0
VERTEX
  5
4E6
100
AcDbEntity
  8
LE_ALL
100
AcDbVertex
100
AcDb2dVertex
 10
878.24969977
 20
-243.13842054
 30
0.0
  0
VERTEX
  5
4E7
100
AcDbEntity
  8
LE_ALL
100
AcDbVertex
100
AcDb2dVertex
 10
858.83705379
 20
-260.25876506
 30
0.0
  0
SEQEND
  5
4E8
100
AcDbEntity
  8
LE_ALL
  0
ELLIPSE
  5
4E9
100
AcDbEntity
  8
LE_ALL
100
AcDbEllipse
  6
PHANTOM
 62
     1
 10
838.86639671
 20
-277.61333706
 30
0.0
 11
22.83944684
 21
19.45146956
 31
0.0
 40
0.01864166
 41
0.49096447
 42
2.03749768
  0
POLYLINE
  5
4EA
100
AcDbEntity
  8
LE_ALL
100
AcDb2dPolyline
  6
PHANTOM
 62
     1
 66
     1
  0
VERTEX
  5
4EB
100
AcDbEntity
  8
LE_ALL
100
AcDbVertex
100
AcDb2dVertex
 10
828.26612130
 20
-285.98515412
 30
0.0
  0
VERTEX
  5
4EC
100
AcDbEntity
  8
LE_ALL
100
AcDbVertex
100
AcDb2dVertex
 10
829.98468587
 20
-377.24613062
 30
0.0
  0
VERTEX
  5
4ED
100
AcDbEntity
  8
LE_ALL
100
AcDbVertex
100
AcDb2dVertex
 10
491.40681572
 20
-334.58932854
 30
0.0
  0
SEQEND
  5
4EE
100
AcDbEntity
  8
LE_ALL
  0
ELLIPSE
  5
4EF
100
AcDbEntity
  8
LE_ALL
100
AcDbEllipse
  6
PHANTOM
 62
     1
 10
502.05108187
 20
-325.23355022
 30
0.0
 11
30.02703326
 21
0.00996866
 31
0.0
 40
0.33310573
 41
3.12659055
 42
4.34991040
  0
LINE
  5
4F0
100
AcDbEntity
  8
LE_ALL
100
AcDbLine
  6
PHANTOM
 10
476.08462659
 20
-234.34310770
 30
0.0
 11
472.02737773
 21
-325.09346964
 31
0.0
  0
ELLIPSE
  5
4F1
100
AcDbEntity
  8
LE_ALL
100
AcDbEllipse
  6
PHANTOM
 62
     1
 10
506.05468965
 20
-235.68300323
 30
0.0
 11
29.97006306
 21
-1.33989553
 31
0.0
 40
0.31328709
 41
3.14159265
 42
4.36491251
  0
ELLIPSE
  5
4F2
100
AcDbEntity
  8
LE_ALL
100
AcDbEllipse
  6
PHANTOM
 62
     1
 10
506.05468965
 20
-235.68300323
 30
0.0
 11
20.00497080
 21
-22.35623276
 31
0.0
 40
0.44957224
 41
3.14159265
 42
4.68472333
  0
LINE
  5
4F3
100
AcDbEntity
  8
LE_ALL
100
AcDbLine
  6
PHANTOM
 10
506.64254400
 20
-194.89974521
 30
0.0
 11
486.04971885
 21
-213.32677047
 31
0.0
  0
ELLIPSE
  5
4F4
100
AcDbEntity
  8
LE_ALL
100
AcDbEllipse
  6
PHANTOM
 62
     1
 10
526.64751480
 20
-217.25597796
 30
0.0
 11
20.00497080
 21
-22.35623276
 31
0.0
 40
0.44957224
 41
3.14159265
 42
4.68472333
  0
ELLIPSE
  5
4F5
100
AcDbEntity
  8
LE_ALL
100
AcDbEllipse
  6
PHANTOM
 62
     1
 10
526.64751480
 20
-217.25597796
 30
0.0
 11
-3.03917273
 21
-29.84566014
 31
0.0
 40
0.34040578
 41
3.49491599
 42
5.03118190
  0
POLYLINE
  5
4F6
100
AcDbEntity
  8
LE_ALL
100
AcDb2dPolyline
  6
PHANTOM
 62
     1
 66
     1
  0
VERTEX
  5
4F7
100
AcDbEntity
  8
LE_ALL
100
AcDbVertex
100
AcDb2dVertex
 10
525.98353738
 20
-188.89597172
 30
0.0
  0
VERTEX
  5
4F8
100
AcDbEntity
  8
LE_ALL
100
AcDbVertex
100
AcDb2dVertex
 10
545.12730519
 20
-172.01275546
 30
0.0
  0
VERTEX
  5
4F9
100
AcDbEntity
  8
LE_ALL
100
AcDbVertex
100
AcDb2dVertex
 10
546.32818554
 20
-172.13540583
 30
0.0
  0
VERTEX
  5
4FA
100
AcDbEntity
  8
LE_ALL
100
AcDbVertex
100
AcDb2dVertex
 10
549.86371945
 20
-169.01735801
 30
0.0
  0
VERTEX
  5
4FB
100
AcDbEntity
  8
LE_ALL
100
AcDbVertex
100
AcDb2dVertex
 10
548.66283909
 20
-168.89470764
 30
0.0
  0
SEQEND
  5
4FC
100
AcDbEntity
  8
LE_ALL
  0
ELLIPSE
  5
4FD
100
AcDbEntity
  8
LE_ALL
100
AcDbEllipse
  6
PHANTOM
 62
     1
 10
549.32681652
 20
-197.25471388
 30
0.0
 11
19.84313483
 21
-22.50000000
 31
0.0
 40
0.88191710
 41
2.37985742
 42
3.14159265
  0
LINE
  5
4FE
100
AcDbEntity
  8
LE_ALL
100
AcDbLine
  6
PHANTOM
 10
548.62744949
 20
-157.87149762
 30
0.0
 11
529.48368168
 21
-174.75471388
 31
0.0
  0
ELLIPSE
  5
4FF
100
AcDbEntity
  8
LE_ALL
100
AcDbEllipse
  6
PHANTOM
 62
     1
 10
568.47058432
 20
-180.37149762
 30
0.0
 11
19.84313483
 21
-22.50000000
 31
0.0
 40
0.88191710
 41
2.37985742
 42
3.14159265
  0
ELLIPSE
  5
500
100
AcDbEntity
  8
LE_ALL
100
AcDbEllipse
  6
PHANTOM
 62
     1
 10
568.47058432
 20
-180.37149762
 30
0.0
 11
-3.05714089
 21
-29.84382498
 31
0.0
 40
0.34184783
 41
3.14159265
 42
3.49512137
  0
LINE
  5
501
100
AcDbEntity
  8
LE_ALL
100
AcDbLine
  6
PHANTOM
 10
571.52772529
 20
-150.52767265
 30
0.0
 11
718.17926255
 21
-165.55035861
 31
0.0
  0
ELLIPSE
  5
502
100
AcDbEntity
  8
LE_ALL
100
AcDbEllipse
  6
PHANTOM
 62
     1
 10
714.50733757
 20
-195.33120636
 30
0.0
 11
-3.74866840
 21
-29.77208686
 31
0.0
 40
0.33326768
 41
3.13386923
 42
3.14931608
  0
POLYLINE
  5
503
100
AcDbEntity
  8
LE_ALL
100
AcDb2dPolyline
  6
PHANTOM
 66
     1
  0
VERTEX
  5
504
100
AcDbEntity
  8
LE_ALL
100
AcDbVertex
100
AcDb2dVertex
 10
718.33252576
 20
-165.56965631
 30
0.0
  0
VERTEX
  5
505
100
AcDbEntity
  8
LE_ALL
100
AcDbVertex
100
AcDb2dVertex
 10
865.07079221
 20
-187.51051806
 30
0.0
  0
SEQEND
  5
506
100
AcDbEntity
  8
LE_ALL
  0
ELLIPSE
  5
507
100
AcDbEntity
  8
LE_ALL
100
AcDbEllipse
  6
PHANTOM
 62
     1
 10
860.63439742
 20
-217.18067817
 30
0.0
 11
-4.43639479
 21
-29.67016012
 31
0.0
 40
0.32463198
 41
3.14159265
 42
3.51056821
  0
ELLIPSE
  5
508
100
AcDbEntity
  8
LE_ALL
100
AcDbEllipse
  6
PHANTOM
 62
     1
 10
860.63439742
 20
-217.18067817
 30
0.0
 11
19.84313483
 21
-22.50000000
 31
0.0
 40
0.88191710
 41
1.56434898
 42
2.33253156
  0
LINE
  5
509
100
AcDbEntity
  8
LE_ALL
100
AcDbLine
  6
PHANTOM
 62
     1
 10
861.46128669
 20
-216.70932243
 30
0.0
 11
880.60505450
 21
-199.82610617
 31
0.0
  0
LINE
  5
50A
100
AcDbEntity
  8
LE_ALL
100
AcDbLine
  6
PHANTOM
 62
     1
 10
714.50713233
 20
-167.03919559
 30
0.0
 11
861.29837484
 21
-188.98797852
 31
0.0
  0
ELLIPSE
  5
50B
100
AcDbEntity
  8
LE_ALL
100
AcDbEllipse
  6
PHANTOM
 62
     1
 10
714.50733757
 20
-195.33120636
 30
0.0
 11
-3.74866840
 21
-29.77208686
 31
0.0
 40
0.33326768
 41
3.14931608
 42
3.50284479
  0
LINE
  5
50C
100
AcDbEntity
  8
LE_ALL
100
AcDbLine
  6
PHANTOM
 62
     1
 10
567.80660690
 20
-152.01149138
 30
0.0
 11
714.50713233
 21
-167.03919559
 31
0.0
  0
LINE
  5
50D
100
AcDbEntity
  8
LE_ALL
100
AcDbLine
  6
PHANTOM
 62
     1
 10
548.66283909
 20
-168.89470764
 30
0.0
 11
567.80660690
 21
-152.01149138
 31
0.0
  0
LINE
  5
50E
100
AcDbEntity
  8
LE_ALL
100
AcDbLine
  6
PHANTOM
 62
     1
 10
672.77478028
 20
-203.84367064
 30
0.0
 11
714.50713233
 21
-167.03919559
 31
0.0
  0
POLYLINE
  5
50F
100
AcDbEntity
  8
LE_ALL
100
AcDb2dPolyline
  6
PHANTOM
 62
     1
 66
     1
  0
VERTEX
  5
510
100
AcDbEntity
  8
LE_ALL
100
AcDbVertex
100
AcDb2dVertex
 10
672.77478028
 20
-203.84367064
 30
0.0
  0
VERTEX
  5
511
100
AcDbEntity
  8
LE_ALL
100
AcDbVertex
100
AcDb2dVertex
 10
525.98353738
 20
-188.89597172
 30
0.0
  0
SEQEND
  5
512
100
AcDbEntity
  8
LE_ALL
  0
ELLIPSE
  5
513
100
AcDbEntity
  8
LE_ALL
100
AcDbEllipse
  6
PHANTOM
 62
     1
 10
526.64751480
 20
-217.25597796
 30
0.0
 11
19.84313483
 21
-22.50000000
 31
0.0
 40
0.88191710
 41
2.37985742
 42
3.14159265
  0
LINE
  5
514
100
AcDbEntity
  8
LE_ALL
100
AcDbLine
  6
PHANTOM
 10
525.94814778
 20
-177.87276171
 30
0.0
 11
506.80437997
 21
-194.75597796
 31
0.0
  0
ELLIPSE
  5
515
100
AcDbEntity
  8
LE_ALL
100
AcDbEllipse
  6
PHANTOM
 62
     1
 10
545.79128261
 20
-200.37276171
 30
0.0
 11
19.84313483
 21
-22.50000000
 31
0.0
 40
0.88191710
 41
3.14159265
 42
3.14804000
  0
LINE
  5
516
100
AcDbEntity
  8
LE_ALL
100
AcDbLine
  6
PHANTOM
 62
     1
 10
505.49667855
 20
-196.17595413
 30
0.0
 11
525.82062553
 21
-177.98605712
 31
0.0
  0
ELLIPSE
  5
517
100
AcDbEntity
  8
LE_ALL
100
AcDbEllipse
  6
PHANTOM
 62
     1
 10
525.46733563
 20
-218.56265872
 30
0.0
 11
19.84313483
 21
-22.50000000
 31
0.0
 40
0.88191710
 41
3.14804000
 42
3.89466816
  0
LINE
  5
518
100
AcDbEntity
  8
LE_ALL
100
AcDbLine
  6
PHANTOM
 62
     1
 10
497.37094716
 20
-215.62422821
 30
0.0
 11
497.41956312
 21
-214.11490789
 31
0.0
  0
LINE
  5
519
100
AcDbEntity
  8
LE_ALL
100
AcDbLine
  6
PHANTOM
 62
     1
 10
497.37094716
 20
-215.62422821
 30
0.0
 11
494.87415520
 21
-181.75777104
 31
0.0
  0
ELLIPSE
  5
51A
100
AcDbEntity
  8
LE_ALL
100
AcDbEllipse
  6
PHANTOM
 62
     1
 10
511.66445057
 20
-182.60395691
 30
0.0
 11
11.90587457
 21
-13.49999283
 31
0.0
 40
0.88191710
 41
3.14159265
 42
4.00184864
  0
ELLIPSE
  5
51B
100
AcDbEntity
  8
LE_ALL
100
AcDbEllipse
  6
PHANTOM
 62
     1
 10
511.66445057
 20
-182.60395691
 30
0.0
 11
11.90587457
 21
-13.49999283
 31
0.0
 40
0.88191710
 41
2.29423767
 42
3.14159265
  0
LINE
  5
51C
100
AcDbEntity
  8
LE_ALL
100
AcDbLine
  6
PHANTOM
 62
     1
 10
516.24251207
 20
-162.67926307
 30
0.0
 11
512.70697817
 21
-165.79731089
 31
0.0
  0
LINE
  5
51D
100
AcDbEntity
  8
LE_ALL
100
AcDbLine
  6
PHANTOM
 62
     1
 10
516.24251207
 20
-162.67926307
 30
0.0
 11
549.86371945
 21
-169.01735801
 31
0.0
  0
ELLIPSE
  5
51E
100
AcDbEntity
  8
LE_ALL
100
AcDbEllipse
  6
PHANTOM
 62
     1
 10
515.19998447
 20
-179.48590909
 30
0.0
 11
11.90587457
 21
-13.49999283
 31
0.0
 40
0.88191710
 41
2.29423767
 42
3.14159265
  0
LINE
  5
51F
100
AcDbEntity
  8
LE_ALL
100
AcDbLine
  6
PHANTOM
 10
503.29410990
 20
-165.98591627
 30
0.0
 11
499.75857600
 21
-169.10396409
 31
0.0
  0
LINE
  5
520
100
AcDbEntity
  8
LE_ALL
100
AcDbLine
  6
PHANTOM
 62
     1
 10
512.70697817
 20
-165.79731089
 30
0.0
 11
546.32818554
 21
-172.13540583
 31
0.0
  0
ELLIPSE
  5
521
100
AcDbEntity
  8
LE_ALL
100
AcDbEllipse
  6
PHANTOM
 62
     1
 10
545.79128261
 20
-200.37276171
 30
0.0
 11
19.84313483
 21
-22.50000000
 31
0.0
 40
0.88191710
 41
2.37985742
 42
3.14159265
  0
ARC
  5
522
100
AcDbEntity
  8
LE_ALL
100
AcDbCircle
  6
PHANTOM
 10
526.64751480
 20
-217.25597796
 30
0.0
 40
30.00000000
100
AcDbArc
 50
131.409622109
 51
131.823053076
  0
LINE
  5
523
100
AcDbEntity
  8
LE_ALL
100
AcDbLine
  6
PHANTOM
 62
     1
 10
819.47530532
 20
-225.87245886
 30
0.0
 11
672.77478028
 21
-203.84367064
 31
0.0
  0
POLYLINE
  5
524
100
AcDbEntity
  8
LE_ALL
100
AcDb2dPolyline
  6
PHANTOM
 62
     1
 66
     1
  0
VERTEX
  5
525
100
AcDbEntity
  8
LE_ALL
100
AcDbVertex
100
AcDb2dVertex
 10
838.61907313
 20
-208.98924260
 30
0.0
  0
VERTEX
  5
526
100
AcDbEntity
  8
LE_ALL
100
AcDbVertex
100
AcDb2dVertex
 10
819.47530532
 20
-225.87245886
 30
0.0
  0
SEQEND
  5
527
100
AcDbEntity
  8
LE_ALL
  0
ELLIPSE
  5
528
100
AcDbEntity
  8
LE_ALL
100
AcDbEllipse
  6
PHANTOM
 62
     1
 10
818.81132790
 20
-254.06515851
 30
0.0
 11
-4.45490281
 21
-29.66738682
 31
0.0
 40
0.32607403
 41
3.51077118
 42
5.04703708
  0
POLYLINE
  5
529
100
AcDbEntity
  8
LE_ALL
100
AcDb2dPolyline
  6
PHANTOM
 62
     1
 66
     1
  0
VERTEX
  5
52A
100
AcDbEntity
  8
LE_ALL
100
AcDbVertex
100
AcDb2dVertex
 10
808.21105249
 20
-262.43697558
 30
0.0
  0
VERTEX
  5
52B
100
AcDbEntity
  8
LE_ALL
100
AcDbVertex
100
AcDb2dVertex
 10
828.26612130
 20
-285.98515412
 30
0.0
  0
SEQEND
  5
52C
100
AcDbEntity
  8
LE_ALL
  0
ELLIPSE
  5
52D
100
AcDbEntity
  8
LE_ALL
100
AcDbEllipse
  6
PHANTOM
 62
     1
 10
838.86639671
 20
-277.61333706
 30
0.0
 11
29.99468214
 21
0.56483943
 31
0.0
 40
0.29175524
 41
4.34569194
 42
5.91537225
  0
ELLIPSE
  5
52E
100
AcDbEntity
  8
LE_ALL
100
AcDbEllipse
  6
PHANTOM
 62
     1
 10
838.86639671
 20
-277.61333706
 30
0.0
 11
19.84313483
 21
-22.50000000
 31
0.0
 40
0.88191710
 41
0.81772082
 42
1.56434898
  0
LINE
  5
52F
100
AcDbEntity
  8
LE_ALL
100
AcDbLine
  6
PHANTOM
 62
     1
 10
858.83705379
 20
-260.25876506
 30
0.0
 11
838.78198498
 21
-236.71058651
 31
0.0
  0
ELLIPSE
  5
530
100
AcDbEntity
  8
LE_ALL
100
AcDbEllipse
  6
PHANTOM
 62
     1
 10
818.81132790
 20
-254.06515851
 30
0.0
 11
22.83944684
 21
19.45146956
 31
0.0
 40
0.01864166
 41
0.49096447
 42
2.03749768
  0
LINE
  5
531
100
AcDbEntity
  8
LE_ALL
100
AcDbLine
  6
PHANTOM
 62
     1
 10
662.17429963
 20
-240.50786047
 30
0.0
 11
808.21105249
 21
-262.43697558
 31
0.0
  0
LINE
  5
532
100
AcDbEntity
  8
LE_ALL
100
AcDbLine
  6
PHANTOM
 62
     1
 10
516.04723939
 20
-225.62779503
 30
0.0
 11
662.17429963
 21
-240.50786047
 31
0.0
  0
LINE
  5
533
100
AcDbEntity
  8
LE_ALL
100
AcDbLine
  6
PHANTOM
 62
     1
 10
495.45441424
 20
-244.05482029
 30
0.0
 11
516.04723939
 21
-225.62779503
 31
0.0
  0
LINE
  5
534
100
AcDbEntity
  8
LE_ALL
100
AcDbLine
  6
PHANTOM
 62
     1
 10
491.40681572
 20
-334.58932854
 30
0.0
 11
495.45441424
 21
-244.05482029
 31
0.0
  0
ELLIPSE
  5
535
100
AcDbEntity
  8
LE_ALL
100
AcDbEllipse
  6
PHANTOM
 62
     1
 10
672.77457505
 20
-232.13604341
 30
0.0
 11
-3.74904039
 21
-29.77242700
 31
0.0
 40
0.33325915
 41
3.50284358
 42
5.03910949
  0
LINE
  5
536
100
AcDbEntity
  8
LE_ALL
100
AcDbLine
  6
PHANTOM
 62
     1
 10
838.78198498
 20
-236.71058651
 30
0.0
 11
857.92575279
 21
-219.82737025
 31
0.0
  0
ELLIPSE
  5
537
100
AcDbEntity
  8
LE_ALL
100
AcDbEllipse
  6
PHANTOM
 62
     1
 10
818.81132790
 20
-254.06515851
 30
0.0
 11
19.84313483
 21
-22.50000000
 31
0.0
 40
0.88191710
 41
1.56434898
 42
2.33253156
  0
LINE
  5
538
100
AcDbEntity
  8
LE_ALL
100
AcDbLine
  6
PHANTOM
 62
     1
 10
861.29837484
 20
-188.98797852
 30
0.0
 11
842.15460704
 21
-205.87119478
 31
0.0
  0
ARC
  5
539
100
AcDbEntity
  8
LE_ALL
100
AcDbCircle
  6
PHANTOM
 10
860.63439742
 20
-217.18067817
 30
0.0
 40
30.00000000
100
AcDbArc
 50
41.748007213
 51
81.495920673
  0
ARC
  5
53A
100
AcDbEntity
  8
LE_ALL
100
AcDbCircle
  6
PHANTOM
 10
568.47058432
 20
-180.37149762
 30
0.0
 40
30.00000000
100
AcDbArc
 50
84.258795641
 51
90.000000000
  0
ARC
  5
53B
100
AcDbEntity
  8
LE_ALL
100
AcDbCircle
  6
PHANTOM
 10
568.47058432
 20
-180.37149762
 30
0.0
 40
30.00000000
100
AcDbArc
 50
90.000000000
 51
130.617341668
  0
ARC
  5
53C
100
AcDbEntity
  8
LE_ALL
100
AcDbCircle
  6
PHANTOM
 10
506.05468965
 20
-235.68300323
 30
0.0
 40
30.00000000
100
AcDbArc
 50
131.963524757
 51
177.440136489
  0
ELLIPSE
  5
53D
100
AcDbEntity
  8
LE_ALL
100
AcDbEllipse
  6
PHANTOM
 62
     1
 10
840.56628331
 20
-367.88245679
 30
0.0
 11
30.00487512
 21
-0.00887476
 31
0.0
 40
0.33359791
 41
4.35207265
 42
5.92175296
  0
ELLIPSE
  5
53E
100
AcDbEntity
  8
LE_ALL
100
AcDbEllipse
  6
PHANTOM
 62
     1
 10
858.27904269
 20
-260.49299254
 30
0.0
 11
19.84313483
 21
-22.50000000
 31
0.0
 40
0.88191710
 41
0.81772082
 42
1.56434898
  0
LINE
  5
53F
100
AcDbEntity
  8
LE_ALL
100
AcDbLine
  6
PHANTOM
 62
     1
 10
840.95372668
 20
-205.69125174
 30
0.0
 11
837.41819278
 21
-208.80929956
 31
0.0
  0
LINE
  5
540
100
AcDbEntity
  8
LE_ALL
100
AcDbLine
  6
PHANTOM
 62
     1
 10
874.57493406
 20
-207.82490475
 30
0.0
 11
871.03940015
 21
-210.94295257
 31
0.0
  0
ELLIPSE
  5
541
100
AcDbEntity
  8
LE_ALL
100
AcDbEllipse
  6
PHANTOM
 62
     1
 10
861.81457660
 20
-257.37494472
 30
0.0
 11
19.84313483
 21
-22.50000000
 31
0.0
 40
0.88191710
 41
0.81772082
 42
1.56434898
  0
ENDBLK
  5
542
100
AcDbEntity
  8
0
100
AcDbBlockEnd
  0
ENDSEC
  0
SECTION
  2
ENTITIES
  0
INSERT
  5
543
100
AcDbEntity
  8
0
100
AcDbBlockReference
  2
ANS3D02_00001
 10
0.0
 20
0.0
 30
0.0
  0
INSERT
  5
544
100
AcDbEntity
  8
0
100
AcDbBlockReference
  2
ANS3D03_00011
 10
0.0
 20
0.0
 30
0.0
  0
INSERT
  5
545
100
AcDbEntity
  8
0
100
AcDbBlockReference
  2
ANS3D04_00021
 10
0.0
 20
0.0
 30
0.0
  0
INSERT
  5
546
100
AcDbEntity
  8
0
100
AcDbBlockReference
  2
ANS3D05_00031
 10
0.0
 20
0.0
 30
0.0
  0
ENDSEC
  0
SECTION
  2
OBJECTS
  0
DICTIONARY
  5
C
330
0
100
AcDbDictionary
281
     1
  3
ACAD_GROUP
350
D
  3
ACAD_LAYOUT
350
19
  3
ACAD_MLINESTYLE
350
16
  0
DICTIONARY
  5
115
330
1E
100
AcDbDictionary
280
     1
281
     1
  3
ACAD_INDEX
360
116
  0
DICTIONARY
  5
D
100
AcDbDictionary
281
     1
  0
DICTIONARY
  5
19
100
AcDbDictionary
281
     1
  3
Layout1
350
1D
  3
Model
350
21
  0
DICTIONARY
  5
16
100
AcDbDictionary
281
     1
  3
Standard
350
17
  0
DICTIONARY
  5
116
100
AcDbDictionary
281
     1
  3
*A1
350
117
  0
LAYOUT
  5
1D
100
AcDbPlotSettings
  1

  2
C:\Programme\MDT\plotters\DWF Classic.pc3
  4

  6

 40
0.0
 41
0.0
 42
0.0
 43
0.0
 44
0.0
 45
0.0
 46
0.0
 47
0.0
 48
0.0
 49
0.0
140
0.0
141
0.0
142
1.0
143
1.0
 70
   688
 72
     0
 73
     0
 74
     5
  7

 75
    16
147
1.0
148
0.0
149
0.0
100
AcDbLayout
  1
Layout1
 70
     1
 71
     1
 10
0.0
 20
0.0
 11
12.0
 21
9.0
 12
0.0
 22
0.0
 32
0.0
 14
1.000000000000000E+20
 24
1.000000000000000E+20
 34
1.000000000000000E+20
 15
-1.000000000000000E+20
 25
-1.000000000000000E+20
 35
-1.000000000000000E+20
146
0.0
 13
0.0
 23
0.0
 33
0.0
 16
1.0
 26
0.0
 36
0.0
 17
0.0
 27
1.0
 37
0.0
 76
     0
330
1A
  0
LAYOUT
  5
21
100
AcDbPlotSettings
  1

  2
C:\Programme\MDT\plotters\DWF Classic.pc3
  4

  6

 40
0.0
 41
0.0
 42
0.0
 43
0.0
 44
0.0
 45
0.0
 46
0.0
 47
0.0
 48
0.0
 49
0.0
140
0.0
141
0.0
142
1.0
143
1.0
 70
  1712
 72
     0
 73
     0
 74
     0
  7

 75
     0
147
1.0
148
0.0
149
0.0
100
AcDbLayout
  1
Model
 70
     1
 71
     0
 10
0.0
 20
0.0
 11
12.0
 21
9.0
 12
0.0
 22
0.0
 32
0.0
 14
0.0
 24
0.0
 34
0.0
 15
0.0
 25
0.0
 35
0.0
146
0.0
 13
0.0
 23
0.0
 33
0.0
 16
1.0
 26
0.0
 36
0.0
 17
0.0
 27
1.0
 37
0.0
 76
     0
330
1E
  0
MLINESTYLE
  5
17
100
AcDbMlineStyle
  2
STANDARD
 70
     0
  3

 62
   256
 51
90.0
 52
90.0
 71
     2
 49
0.5
 62
   256
  6
BYLAYER
 49
-0.5
 62
   256
  6
BYLAYER
  0
ACDBPLACEHOLDER
  5
F
  0
XRECORD
  5
129
100
AcDbXrecord
280
     1
 90
        0
  0
XRECORD
  5
12A
100
AcDbXrecord
280
     1
  1
{46C4153B-0B27-49FA-99B6-AF3E057D65BC}
  0
XRECORD
  5
122
100
AcDbXrecord
280
     1
  1

  0
XRECORD
  5
128
100
AcDbXrecord
280
     1
 90
        0
  0
XRECORD
  5
124
100
AcDbXrecord
280
     1
340
19
  0
XRECORD
  5
127
100
AcDbXrecord
280
     1
 90
    10781
  0
XRECORD
  5
125
100
AcDbXrecord
280
     1
340
18
  0
XRECORD
  5
126
100
AcDbXrecord
280
     1
340
E
  0
XRECORD
  5
12C
100
AcDbXrecord
280
     1
 40
0.0
  0
XRECORD
  5
12F
100
AcDbXrecord
280
     1
340
0
  0
XRECORD
  5
135
100
AcDbXrecord
280
     1
 10
0.0
 20
0.0
 30
0.0
  0
XRECORD
  5
131
100
AcDbXrecord
280
     1
 10
0.0
 20
0.0
 30
0.0
  0
XRECORD
  5
134
100
AcDbXrecord
280
     1
 10
0.0
 20
0.0
 30
0.0
  0
XRECORD
  5
132
100
AcDbXrecord
280
     1
 10
0.0
 20
0.0
 30
0.0
  0
XRECORD
  5
133
100
AcDbXrecord
280
     1
 10
0.0
 20
0.0
 30
0.0
  0
XRECORD
  5
130
100
AcDbXrecord
280
     1
 10
0.0
 20
0.0
 30
0.0
  0
XRECORD
  5
12D
100
AcDbXrecord
280
     1
340
0
  0
XRECORD
  5
12E
100
AcDbXrecord
280
     1
 70
     0
  0
XRECORD
  5
123
100
AcDbXrecord
280
     1
  1

  0
XRECORD
  5
120
100
AcDbXrecord
280
     1
 90
        1
  0
XRECORD
  5
121
100
AcDbXrecord
280
     1
 90
       70
  0
XRECORD
  5
138
100
AcDbXrecord
280
     1
340
0
  0
XRECORD
  5
13E
100
AcDbXrecord
280
     1
 10
0.0
 20
0.0
 30
0.0
  0
XRECORD
  5
13A
100
AcDbXrecord
280
     1
 10
0.0
 20
0.0
 30
0.0
  0
XRECORD
  5
13D
100
AcDbXrecord
280
     1
 10
0.0
 20
0.0
 30
0.0
  0
XRECORD
  5
13B
100
AcDbXrecord
280
     1
 10
0.0
 20
0.0
 30
0.0
  0
XRECORD
  5
13C
100
AcDbXrecord
280
     1
 10
0.0
 20
0.0
 30
0.0
  0
XRECORD
  5
139
100
AcDbXrecord
280
     1
 10
0.0
 20
0.0
 30
0.0
  0
XRECORD
  5
136
100
AcDbXrecord
280
     1
340
0
  0
XRECORD
  5
137
100
AcDbXrecord
280
     1
 70
     0
  0
XRECORD
  5
12B
100
AcDbXrecord
280
     1
  1
{09700D79-BD6A-4B2C-8A65-8ED4ED61BA28}
  0
DICTIONARYVAR
  5
11D
100
DictionaryVariables
280
     0
  1
1
  0
ENDSEC
  0
EOF
