999
NT  : - 1800
  0
SECTION
  2
HEADER
  9
$ACADVER
  1
AC1015
  9
$DWGCODEPAGE
  3
ANSI_1252
  9
$INSBASE
 10
0.0
 20
0.0
 30
0.0
  9
$EXTMIN
 10
-844.09965965
 20
-689.56412151
 30
0.0
  9
$EXTMAX
 10
1662.92688032
 20
589.78327353
 30
0.0
  9
$LIMMIN
 10
-844.09965965
 20
-689.56412151
  9
$LIMMAX
 10
1662.92688032
 20
589.78327353
  9
$FILLMODE
 70
     1
  9
$QTEXTMODE
 70
     0
  9
$LTSCALE
 40
1.0
  9
$ATTMODE
 70
     1
  9
$TEXTSTYLE
  7
Standard
  9
$LUNITS
 70
     2
  9
$LUPREC
 70
     4
  9
$AUNITS
 70
     0
  9
$AUPREC
 70
     0
  9
$ANGBASE
 50
0.0
  9
$ANGDIR
 70
     0
  9
$HANDSEED
  5
547
  9
$TILEMODE
 70
     1
  9
$VISRETAIN
 70
     0
  9
$MEASUREMENT
 70
     1
  0
ENDSEC
  0
SECTION
  2
CLASSES
  0
ENDSEC
  0
SECTION
  2
TABLES
  0
TABLE
  2
VPORT
  5
1
100
AcDbSymbolTable
 70
     1
  0
VPORT
  5
2
100
AcDbSymbolTableRecord
100
AcDbViewportTableRecord
  2
*Active
 70
     0
 10
0.0
 20
0.0
 11
1.0
 21
1.0
 12
409.41361034
 22
-49.89042399
 13
0.0
 23
0.0
 14
1.0
 24
1.0
 15
0.0
 25
0.0
 16
0.0
 26
0.0
 36
1.0
 17
0.0
 27
0.0
 37
0.0
 40
1279.347395033
 41
1.959613589
 42
50.0
 43
0.0
 44
0.0
 50
0.0
 51
0.0
 71
     0
 72
   100
 73
     1
 74
     1
 75
     0
 76
     0
 77
     0
 78
     0
  0
ENDTAB
  0
TABLE
  2
LTYPE
  5
3
100
AcDbSymbolTable
 70
    21
  0
LTYPE
  5
4
100
AcDbSymbolTableRecord
100
AcDbLinetypeTableRecord
  2
ByBlock
 70
    64
  3

 72
    65
 73
     0
 40
0.0
  0
LTYPE
  5
5
100
AcDbSymbolTableRecord
100
AcDbLinetypeTableRecord
  2
ByLayer
 70
    64
  3

 72
    65
 73
     0
 40
0.0
  0
LTYPE
  5
6
100
AcDbSymbolTableRecord
100
AcDbLinetypeTableRecord
  2
CONTINUOUS
 70
    64
  3
Solid line
 72
    65
 73
     0
 40
0.0
  0
LTYPE
  5
7
100
AcDbSymbolTableRecord
100
AcDbLinetypeTableRecord
  2
DOT
 70
    64
  3
..............
 72
    65
 73
     2
 40
2.000
 49
0.500
 74
     0
 49
-1.500
 74
     0
  0
LTYPE
  5
8
100
AcDbSymbolTableRecord
100
AcDbLinetypeTableRecord
  2
HIDDEN
 70
    64
  3
-- -- -- -- --
 72
    65
 73
     2
 40
7.000
 49
4.000
 74
     0
 49
-3.000
 74
     0
  0
LTYPE
  5
9
100
AcDbSymbolTableRecord
100
AcDbLinetypeTableRecord
  2
DASHDOT
 70
    64
  3
--.--.--.--.--
 72
    65
 73
     4
 40
8.500
 49
4.000
 74
     0
 49
-2.000
 74
     0
 49
0.500
 74
     0
 49
-2.000
 74
     0
  0
LTYPE
  5
A
100
AcDbSymbolTableRecord
100
AcDbLinetypeTableRecord
  2
STRICHPUNKT2
 70
    64
  3
--.--.--.--.--
 72
    65
 73
     4
 40
18.500
 49
10.000
 74
     0
 49
-4.000
 74
     0
 49
0.500
 74
     0
 49
-4.000
 74
     0
  0
LTYPE
  5
B
100
AcDbSymbolTableRecord
100
AcDbLinetypeTableRecord
  2
STRICHPUNKT3
 70
    64
  3
--.--.--.--.--
 72
    65
 73
     4
 40
35.500
 49
25.000
 74
     0
 49
-5.000
 74
     0
 49
0.500
 74
     0
 49
-5.000
 74
     0
  0
LTYPE
  5
13F
100
AcDbSymbolTableRecord
100
AcDbLinetypeTableRecord
  2
PHANTOM
 70
    64
  3
--..--..--..--
 72
    65
 73
     6
 40
23.000
 49
10.000
 74
     0
 49
-4.000
 74
     0
 49
0.500
 74
     0
 49
-4.000
 74
     0
 49
0.500
 74
     0
 49
-4.000
 74
     0
  0
LTYPE
  5
140
100
AcDbSymbolTableRecord
100
AcDbLinetypeTableRecord
  2
PHANTOM2
 70
    64
  3
--..--..--..--
 72
    65
 73
     6
 40
33.000
 49
20.000
 74
     0
 49
-4.000
 74
     0
 49
0.500
 74
     0
 49
-4.000
 74
     0
 49
0.500
 74
     0
 49
-4.000
 74
     0
  0
LTYPE
  5
141
100
AcDbSymbolTableRecord
100
AcDbLinetypeTableRecord
  2
PHANTOM3
 70
    64
  3
--..--..--..--
 72
    65
 73
     6
 40
50.000
 49
37.000
 74
     0
 49
-4.000
 74
     0
 49
0.500
 74
     0
 49
-4.000
 74
     0
 49
0.500
 74
     0
 49
-4.000
 74
     0
  0
LTYPE
  5
142
100
AcDbSymbolTableRecord
100
AcDbLinetypeTableRecord
  2
STR3PKT
 70
    64
  3
--...--...--...
 72
    65
 73
     8
 40
31.500
 49
20.000
 74
     0
 49
-2.500
 74
     0
 49
0.500
 74
     0
 49
-2.500
 74
     0
 49
0.500
 74
     0
 49
-2.500
 74
     0
 49
0.500
 74
     0
 49
-2.500
 74
     0
  0
LTYPE
  5
143
100
AcDbSymbolTableRecord
100
AcDbLinetypeTableRecord
  2
2STRPKT
 70
    64
  3
--.--.--.--.--
 72
    65
 73
     6
 40
28.000
 49
10.000
 74
     0
 49
-2.500
 74
     0
 49
10.000
 74
     0
 49
-2.500
 74
     0
 49
0.500
 74
     0
 49
-2.500
 74
     0
  0
LTYPE
  5
144
100
AcDbSymbolTableRecord
100
AcDbLinetypeTableRecord
  2
GESTRICHELT2
 70
    64
  3
-- -- -- -- --
 72
    65
 73
     2
 40
25.000
 49
10.000
 74
     0
 49
-15.000
 74
     0
  0
LTYPE
  5
145
100
AcDbSymbolTableRecord
100
AcDbLinetypeTableRecord
  2
2STR2PKT
 70
    64
  3
--..--..--..--
 72
    65
 73
     8
 40
31.000
 49
10.000
 74
     0
 49
-2.500
 74
     0
 49
10.000
 74
     0
 49
-2.500
 74
     0
 49
0.500
 74
     0
 49
-2.500
 74
     0
 49
0.500
 74
     0
 49
-2.500
 74
     0
  0
LTYPE
  5
146
100
AcDbSymbolTableRecord
100
AcDbLinetypeTableRecord
  2
STR3PKT2
 70
    64
  3
--...--...--...
 72
    65
 73
     8
 40
21.000
 49
10.000
 74
     0
 49
-2.500
 74
     0
 49
0.500
 74
     0
 49
-2.500
 74
     0
 49
0.500
 74
     0
 49
-2.500
 74
     0
 49
0.500
 74
     0
 49
-2.000
 74
     0
  0
LTYPE
  5
147
100
AcDbSymbolTableRecord
100
AcDbLinetypeTableRecord
  2
2STR3PKT
 70
    64
  3
--...--...--...
 72
    65
 73
    10
 40
34.000
 49
10.000
 74
     0
 49
-2.500
 74
     0
 49
10.000
 74
     0
 49
-2.500
 74
     0
 49
0.500
 74
     0
 49
-2.500
 74
     0
 49
0.500
 74
     0
 49
-2.500
 74
     0
 49
0.500
 74
     0
 49
-2.500
 74
     0
  0
LTYPE
  5
148
100
AcDbSymbolTableRecord
100
AcDbLinetypeTableRecord
  2
STRKSTR
 70
    64
  3
-- - -- - -- -
 72
    65
 73
     4
 40
30.000
 49
20.000
 74
     0
 49
-2.500
 74
     0
 49
5.000
 74
     0
 49
-2.500
 74
     0
  0
LTYPE
  5
149
100
AcDbSymbolTableRecord
100
AcDbLinetypeTableRecord
  2
STRKSTR2
 70
    64
  3
-- - -- - -- -
 72
    65
 73
     6
 40
37.500
 49
20.000
 74
     0
 49
-2.500
 74
     0
 49
5.000
 74
     0
 49
-2.500
 74
     0
 49
5.000
 74
     0
 49
-2.500
 74
     0
  0
LTYPE
  5
14A
100
AcDbSymbolTableRecord
100
AcDbLinetypeTableRecord
  2
STRKSTR3
 70
    64
  3
-- - -- - -- -
 72
    65
 73
     8
 40
45.000
 49
20.000
 74
     0
 49
-2.500
 74
     0
 49
5.000
 74
     0
 49
-2.500
 74
     0
 49
5.000
 74
     0
 49
-2.500
 74
     0
 49
5.000
 74
     0
 49
-2.500
 74
     0
  0
LTYPE
  5
14B
100
AcDbSymbolTableRecord
100
AcDbLinetypeTableRecord
  2
PUNKT2
 70
    64
  3
..............
 72
    65
 73
     2
 40
3.500
 49
0.500
 74
     0
 49
-3.000
 74
     0
  0
ENDTAB
  0
TABLE
  2
LAYER
  5
14C
100
AcDbSymbolTable
 70
    15
  0
LAYER
  5
14D
100
AcDbSymbolTableRecord
100
AcDbLayerTableRecord
  2
0
 70
    64
 62
     7
  6
CONTINUOUS
370
    -3
390
F
  0
LAYER
  5
14E
100
AcDbSymbolTableRecord
100
AcDbLayerTableRecord
  2
LE_GREEN
 70
    64
 62
     3
  6
CONTINUOUS
370
    -3
390
F
  0
LAYER
  5
14F
100
AcDbSymbolTableRecord
100
AcDbLayerTableRecord
  2
LE_RED
 70
    64
 62
     1
  6
CONTINUOUS
370
    -3
390
F
  0
LAYER
  5
150
100
AcDbSymbolTableRecord
100
AcDbLayerTableRecord
  2
LE_ALL
 70
    64
 62
     7
  6
CONTINUOUS
370
    50
390
F
  0
LAYER
  5
151
100
AcDbSymbolTableRecord
100
AcDbLayerTableRecord
  2
LE_HIDDEN1
 70
    64
 62
     3
  6
HIDDEN
370
    -3
390
F
  0
LAYER
  5
152
100
AcDbSymbolTableRecord
100
AcDbLayerTableRecord
  2
LE_HIDDEN
 70
    64
 62
     7
  6
CONTINUOUS
370
    -3
390
F
  0
LAYER
  5
153
100
AcDbSymbolTableRecord
100
AcDbLayerTableRecord
  2
LE_MIDDLE
 70
    64
 62
     7
  6
CONTINUOUS
370
    -3
390
F
  0
LAYER
  5
154
100
AcDbSymbolTableRecord
100
AcDbLayerTableRecord
  2
TXT_YELLOW
 70
    64
 62
     2
  6
CONTINUOUS
370
    -3
390
F
  0
LAYER
  5
155
100
AcDbSymbolTableRecord
100
AcDbLayerTableRecord
  2
TXT_DIM49
 70
    64
 62
     2
  6
CONTINUOUS
370
    -3
390
F
  0
LAYER
  5
156
100
AcDbSymbolTableRecord
100
AcDbLayerTableRecord
  2
TXT_ALL
 70
    64
 62
     7
  6
CONTINUOUS
370
    -3
390
F
  0
LAYER
  5
157
100
AcDbSymbolTableRecord
100
AcDbLayerTableRecord
  2
DIM49
 70
    64
 62
     4
  6
CONTINUOUS
370
    -3
390
F
  0
LAYER
  5
158
100
AcDbSymbolTableRecord
100
AcDbLayerTableRecord
  2
HATCH
 70
    64
 62
     3
  6
CONTINUOUS
370
    -3
390
F
  0
LAYER
  5
159
100
AcDbSymbolTableRecord
100
AcDbLayerTableRecord
  2
1
 70
    64
 62
     7
  6
CONTINUOUS
370
    -3
390
F
  0
LAYER
  5
15A
100
AcDbSymbolTableRecord
100
AcDbLayerTableRecord
  2
40
 70
    64
 62
     7
  6
CONTINUOUS
370
    -3
390
F
  0
LAYER
  5
15B
100
AcDbSymbolTableRecord
100
AcDbLayerTableRecord
  2
49
 70
    64
 62
     7
  6
CONTINUOUS
370
    -3
390
F
  0
ENDTAB
  0
TABLE
  2
STYLE
  5
15C
100
AcDbSymbolTable
 70
     2
  0
STYLE
  5
15D
100
AcDbSymbolTableRecord
100
AcDbTextStyleTableRecord
  2
MONOTXT
 70
     0
 40
0.0
 41
1.000
 50
0.0
 71
     0
 42
1.000
  3
monotxt.shx
  4

  0
STYLE
  5
15E
100
AcDbSymbolTableRecord
100
AcDbTextStyleTableRecord
  2
STANDARD
 70
     0
 40
0.0
 41
1.000
 50
0.0
 71
     0
 42
1.000
  3
txt
  4

  0
ENDTAB
  0
TABLE
  2
VIEW
  5
15F
100
AcDbSymbolTable
 70
     0
  0
ENDTAB
  0
TABLE
  2
UCS
  5
160
100
AcDbSymbolTable
 70
     0
  0
ENDTAB
  0
TABLE
  2
APPID
  5
161
100
AcDbSymbolTable
 70
     1
  0
APPID
  5
162
100
AcDbSymbolTableRecord
100
AcDbRegAppTableRecord
  2
ACAD
 70
     0
  0
ENDTAB
  0
TABLE
  2
DIMSTYLE
  5
163
100
AcDbSymbolTable
100
AcDbDimStyleTable
 70
     0
  0
ENDTAB
  0
TABLE
  2
BLOCK_RECORD
  5
164
100
AcDbSymbolTable
 70
    42
  0
BLOCK_RECORD
  5
1E
100
AcDbSymbolTableRecord
100
AcDbBlockTableRecord
  2
*Model_Space
  0
BLOCK_RECORD
  5
1A
100
AcDbSymbolTableRecord
100
AcDbBlockTableRecord
  2
*Paper_Space
  0
BLOCK_RECORD
  5
165
100
AcDbSymbolTableRecord
100
AcDbBlockTableRecord
  2
ANS3D02_00001
  0
BLOCK_RECORD
  5
166
100
AcDbSymbolTableRecord
100
AcDbBlockTableRecord
  2
FIG3D02_00002
  0
BLOCK_RECORD
  5
167
100
AcDbSymbolTableRecord
100
AcDbBlockTableRecord
  2
FROM3D_00003
  0
BLOCK_RECORD
  5
168
100
AcDbSymbolTableRecord
100
AcDbBlockTableRecord
  2
FROM3D_00004
  0
BLOCK_RECORD
  5
169
100
AcDbSymbolTableRecord
100
AcDbBlockTableRecord
  2
FROM3D_00005
  0
BLOCK_RECORD
  5
16A
100
AcDbSymbolTableRecord
100
AcDbBlockTableRecord
  2
FROM3D_00006
  0
BLOCK_RECORD
  5
16B
100
AcDbSymbolTableRecord
100
AcDbBlockTableRecord
  2
FROM3D_00007
  0
BLOCK_RECORD
  5
16C
100
AcDbSymbolTableRecord
100
AcDbBlockTableRecord
  2
FROM3D_00008
  0
BLOCK_RECORD
  5
16D
100
AcDbSymbolTableRecord
100
AcDbBlockTableRecord
  2
FROM3D_00009
  0
BLOCK_RECORD
  5
16E
100
AcDbSymbolTableRecord
100
AcDbBlockTableRecord
  2
FROM3D_00010
  0
BLOCK_RECORD
  5
16F
100
AcDbSymbolTableRecord
100
AcDbBlockTableRecord
  2
ANS3D03_00011
  0
BLOCK_RECORD
  5
170
100
AcDbSymbolTableRecord
100
AcDbBlockTableRecord
  2
FIG3D03_00012
  0
BLOCK_RECORD
  5
171
100
AcDbSymbolTableRecord
100
AcDbBlockTableRecord
  2
FROM3D_00013
  0
BLOCK_RECORD
  5
172
100
AcDbSymbolTableRecord
100
AcDbBlockTableRecord
  2
FROM3D_00014
  0
BLOCK_RECORD
  5
173
100
AcDbSymbolTableRecord
100
AcDbBlockTableRecord
  2
FROM3D_00015
  0
BLOCK_RECORD
  5
174
100
AcDbSymbolTableRecord
100
AcDbBlockTableRecord
  2
FROM3D_00016
  0
BLOCK_RECORD
  5
175
100
AcDbSymbolTableRecord
100
AcDbBlockTableRecord
  2
FROM3D_00017
  0
BLOCK_RECORD
  5
176
100
AcDbSymbolTableRecord
100
AcDbBlockTableRecord
  2
FROM3D_00018
  0
BLOCK_RECORD
  5
177
100
AcDbSymbolTableRecord
100
AcDbBlockTableRecord
  2
FROM3D_00019
  0
BLOCK_RECORD
  5
178
100
AcDbSymbolTableRecord
100
AcDbBlockTableRecord
  2
FROM3D_00020
  0
BLOCK_RECORD
  5
179
100
AcDbSymbolTableRecord
100
AcDbBlockTableRecord
  2
ANS3D04_00021
  0
BLOCK_RECORD
  5
17A
100
AcDbSymbolTableRecord
100
AcDbBlockTableRecord
  2
FIG3D04_00022
  0
BLOCK_RECORD
  5
17B
100
AcDbSymbolTableRecord
100
AcDbBlockTableRecord
  2
FROM3D_00023
  0
BLOCK_RECORD
  5
17C
100
AcDbSymbolTableRecord
100
AcDbBlockTableRecord
  2
FROM3D_00024
  0
BLOCK_RECORD
  5
17D
100
AcDbSymbolTableRecord
100
AcDbBlockTableRecord
  2
FROM3D_00025
  0
BLOCK_RECORD
  5
17E
100
AcDbSymbolTableRecord
100
AcDbBlockTableRecord
  2
FROM3D_00026
  0
BLOCK_RECORD
  5
17F
100
AcDbSymbolTableRecord
100
AcDbBlockTableRecord
  2
FROM3D_00027
  0
BLOCK_RECORD
  5
180
100
AcDbSymbolTableRecord
100
AcDbBlockTableRecord
  2
FROM3D_00028
  0
BLOCK_RECORD
  5
181
100
AcDbSymbolTableRecord
100
AcDbBlockTableRecord
  2
FROM3D_00029
  0
BLOCK_RECORD
  5
182
100
AcDbSymbolTableRecord
100
AcDbBlockTableRecord
  2
FROM3D_00030
  0
BLOCK_RECORD
  5
183
100
AcDbSymbolTableRecord
100
AcDbBlockTableRecord
  2
ANS3D05_00031
  0
BLOCK_RECORD
  5
184
100
AcDbSymbolTableRecord
100
AcDbBlockTableRecord
  2
FIG3D05_00032
  0
BLOCK_RECORD
  5
185
100
AcDbSymbolTableRecord
100
AcDbBlockTableRecord
  2
FROM3D_00033
  0
BLOCK_RECORD
  5
186
100
AcDbSymbolTableRecord
100
AcDbBlockTableRecord
  2
FROM3D_00034
  0
BLOCK_RECORD
  5
187
100
AcDbSymbolTableRecord
100
AcDbBlockTableRecord
  2
FROM3D_00035
  0
BLOCK_RECORD
  5
188
100
AcDbSymbolTableRecord
100
AcDbBlockTableRecord
  2
FROM3D_00036
  0
BLOCK_RECORD
  5
189
100
AcDbSymbolTableRecord
100
AcDbBlockTableRecord
  2
FROM3D_00037
  0
BLOCK_RECORD
  5
18A
100
AcDbSymbolTableRecord
100
AcDbBlockTableRecord
  2
FROM3D_00038
  0
BLOCK_RECORD
  5
18B
100
AcDbSymbolTableRecord
100
AcDbBlockTableRecord
  2
FROM3D_00039
  0
BLOCK_RECORD
  5
18C
100
AcDbSymbolTableRecord
100
AcDbBlockTableRecord
  2
FROM3D_00040
  0
ENDTAB
  0
ENDSEC
  0
SECTION
  2
BLOCKS
  0
BLOCK
  5
18D
100
AcDbEntity
  8
0
100
AcDbBlockBegin
  2
*Model_Space
 70
     0
 10
0.0
 20
0.0
 30
0.0
  3
*Model_Space
  1

  0
ENDBLK
  5
18E
100
AcDbEntity
  8
0
100
AcDbBlockEnd
  0
BLOCK
  5
18F
100
AcDbEntity
100
AcDbBlockBegin
 67
     1
  8
0
  2
*Paper_Space
 70
     0
 10
0.0
 20
0.0
 30
0.0
  3
*Paper_Space
  1

  0
ENDBLK
  5
190
100
AcDbEntity
100
AcDbBlockEnd
 67
     1
  8
0
  0
BLOCK
  5
191
100
AcDbEntity
  8
0
100
AcDbBlockBegin
  2
ANS3D02_00001
 70
    64
 10
0.0
 20
0.0
 30
0.0
  3
ANS3D02_00001
  0
INSERT
  5
192
100
AcDbEntity
  8
0
100
AcDbBlockReference
  2
FIG3D02_00002
 10
0.0
 20
0.0
 30
0.0
  0
ENDBLK
  5
193
100
AcDbEntity
  8
0
100
AcDbBlockEnd
  0
BLOCK
  5
194
100
AcDbEntity
  8
0
100
AcDbBlockBegin
  2
FIG3D02_00002
 70
    64
 10
0.0
 20
0.0
 30
0.0
  3
FIG3D02_00002
  0
INSERT
  5
195
100
AcDbEntity
  8
0
100
AcDbBlockReference
  2
FROM3D_00003
 10
0.0
 20
0.0
 30
0.0
  0
ENDBLK
  5
196
100
AcDbEntity
  8
0
100
AcDbBlockEnd
  0
BLOCK
  5
197
100
AcDbEntity
  8
0
100
AcDbBlockBegin
  2
FROM3D_00003
 70
    64
 10
0.0
 20
0.0
 30
0.0
  3
FROM3D_00003
  0
INSERT
  5
198
100
AcDbEntity
  8
0
100
AcDbBlockReference
  2
FROM3D_00004
 10
0.0
 20
0.0
 30
0.0
  0
INSERT
  5
199
100
AcDbEntity
  8
0
100
AcDbBlockReference
  2
FROM3D_00009
 10
0.0
 20
0.0
 30
0.0
  0
ENDBLK
  5
19A
100
AcDbEntity
  8
0
100
AcDbBlockEnd
  0
BLOCK
  5
19B
100
AcDbEntity
  8
0
100
AcDbBlockBegin
  2
FROM3D_00004
 70
    64
 10
0.0
 20
0.0
 30
0.0
  3
FROM3D_00004
  0
INSERT
  5
19C
100
AcDbEntity
  8
0
100
AcDbBlockReference
  2
FROM3D_00005
 10
0.0
 20
0.0
 30
0.0
  0
INSERT
  5
19D
100
AcDbEntity
  8
0
100
AcDbBlockReference
  2
FROM3D_00007
 10
0.0
 20
0.0
 30
0.0
  0
ENDBLK
  5
19E
100
AcDbEntity
  8
0
100
AcDbBlockEnd
  0
BLOCK
  5
19F
100
AcDbEntity
  8
0
100
AcDbBlockBegin
  2
FROM3D_00005
 70
    64
 10
0.0
 20
0.0
 30
0.0
  3
FROM3D_00005
  0
INSERT
  5
1A0
100
AcDbEntity
  8
0
100
AcDbBlockReference
  2
FROM3D_00006
 10
296.43649287
 20
345.63249771
 30
0.0
  0
ENDBLK
  5
1A1
100
AcDbEntity
  8
0
100
AcDbBlockEnd
  0
BLOCK
  5
1A2
100
AcDbEntity
  8
0
100
AcDbBlockBegin
  2
FROM3D_00006
 70
    64
 10
296.43649287
 20
345.63249771
 30
0.0
  3
FROM3D_00006
  0
CIRCLE
  5
1A3
100
AcDbEntity
  8
0
100
AcDbCircle
 10
296.43649287
 20
338.63249771
 30
0.0
 40
7.00000000
  0
LINE
  5
1A4
100
AcDbEntity
  8
0
100
AcDbLine
 10
308.87021108
 20
298.88910276
 30
0.0
 11
311.53939395
 21
334.47625718
 31
0.0
  0
ARC
  5
1A5
100
AcDbEntity
  8
0
100
AcDbCircle
 10
293.58981318
 20
335.82243912
 30
0.0
 40
17.99999044
100
AcDbArc
 50
-4.289037087
 51
93.549864520
  0
LINE
  5
1A6
100
AcDbEntity
  8
0
100
AcDbLine
 10
292.47530430
 20
353.78789279
 30
0.0
 11
256.53272175
 21
351.55815074
 31
0.0
  0
CIRCLE
  5
1A7
100
AcDbEntity
  8
0
100
AcDbCircle
 10
-94.55935674
 20
338.63249771
 30
0.0
 40
7.00000000
  0
LINE
  5
1A8
100
AcDbEntity
  8
0
100
AcDbLine
 10
-90.59816817
 20
353.78789279
 30
0.0
 11
-54.65558562
 21
351.55815074
 31
0.0
  0
ARC
  5
1A9
100
AcDbEntity
  8
0
100
AcDbCircle
 10
-91.71267705
 20
335.82243912
 30
0.0
 40
17.99999044
100
AcDbArc
 50
86.450135480
 51
-175.710962913
  0
LINE
  5
1AA
100
AcDbEntity
  8
0
100
AcDbLine
 10
-106.99307494
 20
298.88910276
 30
0.0
 11
-109.66225782
 21
334.47625718
 31
0.0
  0
POLYLINE
  5
1AB
100
AcDbEntity
  8
0
100
AcDb2dPolyline
 66
     1
 70
     1
  0
VERTEX
  5
1AC
100
AcDbEntity
  8
0
100
AcDbVertex
100
AcDb2dVertex
 10
325.93844600
 20
96.87637463
 30
0.0
  0
VERTEX
  5
1AD
100
AcDbEntity
  8
0
100
AcDbVertex
100
AcDb2dVertex
 10
-124.06130986
 20
96.87637463
 30
0.0
  0
VERTEX
  5
1AE
100
AcDbEntity
  8
0
100
AcDbVertex
100
AcDb2dVertex
 10
-124.06130986
 20
80.24065201
 30
0.0
  0
VERTEX
  5
1AF
100
AcDbEntity
  8
0
100
AcDbVertex
100
AcDb2dVertex
 10
100.93856807
 20
80.24065201
 30
0.0
  0
VERTEX
  5
1B0
100
AcDbEntity
  8
0
100
AcDbVertex
100
AcDb2dVertex
 10
325.93844600
 20
80.24065201
 30
0.0
  0
SEQEND
  5
1B1
100
AcDbEntity
  8
0
  0
LINE
  5
1B2
100
AcDbEntity
  8
0
100
AcDbLine
 10
278.83390837
 20
300.56296117
 30
0.0
 11
285.41989395
 21
96.87637463
 31
0.0
  0
LINE
  5
1B3
100
AcDbEntity
  8
0
100
AcDbLine
 10
315.40207425
 20
96.87637463
 30
0.0
 11
308.81823842
 21
300.49647529
 31
0.0
  0
ELLIPSE
  5
1B4
100
AcDbEntity
  8
0
100
AcDbEllipse
 10
278.83390837
 20
299.52696439
 30
0.0
 11
29.98433005
 21
0.96951090
 31
0.0
 40
0.03451521
 41
6.28318531
 42
1.56968032
  0
LINE
  5
1B5
100
AcDbEntity
  8
0
100
AcDbLine
 10
257.10669513
 20
322.57216211
 30
0.0
 11
278.83390837
 21
300.56296117
 31
0.0
  0
LINE
  5
1B6
100
AcDbEntity
  8
0
100
AcDbLine
 10
100.93856807
 20
326.26824781
 30
0.0
 11
257.10669513
 21
322.57216211
 31
0.0
  0
LINE
  5
1B7
100
AcDbEntity
  8
0
100
AcDbLine
 10
-55.22955899
 20
322.57216211
 30
0.0
 11
100.93856807
 21
326.26824781
 31
0.0
  0
LINE
  5
1B8
100
AcDbEntity
  8
0
100
AcDbLine
 10
-76.95677224
 20
300.56296117
 30
0.0
 11
-55.22955899
 21
322.57216211
 31
0.0
  0
LINE
  5
1B9
100
AcDbEntity
  8
0
100
AcDbLine
 10
-83.54275782
 20
96.87637463
 30
0.0
 11
-76.95677224
 21
300.56296117
 31
0.0
  0
LINE
  5
1BA
100
AcDbEntity
  8
0
100
AcDbLine
 10
-106.94110229
 20
300.49647529
 30
0.0
 11
-113.52493812
 21
96.87637463
 31
0.0
  0
ARC
  5
1BB
100
AcDbEntity
  8
0
100
AcDbCircle
 10
-76.95677224
 20
299.52696439
 30
0.0
 40
30.00000000
100
AcDbArc
 50
135.369405711
 51
178.148048125
  0
LINE
  5
1BC
100
AcDbEntity
  8
0
100
AcDbLine
 10
-76.57908945
 20
342.61215996
 30
0.0
 11
-98.30630269
 21
320.60295901
 31
0.0
  0
ELLIPSE
  5
1BD
100
AcDbEntity
  8
0
100
AcDbEllipse
 10
-55.22955899
 20
321.53616533
 30
0.0
 11
21.34953045
 21
-21.07599463
 31
0.0
 40
0.02458284
 41
1.59505944
 42
3.14159265
  0
ELLIPSE
  5
1BE
100
AcDbEntity
  8
0
100
AcDbEllipse
 10
-55.22955899
 20
321.53616533
 30
0.0
 11
0.70982172
 21
-29.99160138
 31
0.0
 40
0.00081757
 41
1.60532675
 42
3.14159265
  0
LINE
  5
1BF
100
AcDbEntity
  8
0
100
AcDbLine
 10
100.93856807
 20
355.24065201
 30
0.0
 11
-55.93938072
 21
351.52776671
 31
0.0
  0
LINE
  5
1C0
100
AcDbEntity
  8
0
100
AcDbLine
 10
100.93856807
 20
326.26824781
 30
0.0
 11
100.93856807
 21
355.24065201
 31
0.0
  0
LINE
  5
1C1
100
AcDbEntity
  8
0
100
AcDbLine
 10
257.81651685
 20
351.52776671
 30
0.0
 11
100.93856807
 21
355.24065201
 31
0.0
  0
ELLIPSE
  5
1C2
100
AcDbEntity
  8
0
100
AcDbEllipse
 10
257.10669513
 20
321.53616533
 30
0.0
 11
-0.70982172
 21
-29.99160138
 31
0.0
 40
0.00081757
 41
3.14159265
 42
4.67785856
  0
ELLIPSE
  5
1C3
100
AcDbEntity
  8
0
100
AcDbEllipse
 10
257.10669513
 20
321.53616533
 30
0.0
 11
21.34953045
 21
21.07599463
 31
0.0
 40
0.02458284
 41
6.28318531
 42
1.54653321
  0
LINE
  5
1C4
100
AcDbEntity
  8
0
100
AcDbLine
 10
300.18343882
 20
320.60295901
 30
0.0
 11
278.45622558
 21
342.61215996
 31
0.0
  0
ELLIPSE
  5
1C5
100
AcDbEntity
  8
0
100
AcDbEllipse
 10
278.83390837
 20
299.52696439
 30
0.0
 11
21.34953045
 21
21.07599463
 31
0.0
 40
0.02458284
 41
0.0
 42
1.54653321
  0
ARC
  5
1C6
100
AcDbEntity
  8
0
100
AcDbCircle
 10
278.83390837
 20
299.52696439
 30
0.0
 40
30.00000000
100
AcDbArc
 50
1.851951875
 51
44.630594289
  0
ARC
  5
1C7
100
AcDbEntity
  8
0
100
AcDbCircle
 10
257.10669513
 20
321.53616533
 30
0.0
 40
30.00000000
100
AcDbArc
 50
44.630594289
 51
88.644213848
  0
ARC
  5
1C8
100
AcDbEntity
  8
0
100
AcDbCircle
 10
-55.22955899
 20
321.53616533
 30
0.0
 40
30.00000000
100
AcDbArc
 50
91.355786152
 51
135.369405711
  0
ELLIPSE
  5
1C9
100
AcDbEntity
  8
0
100
AcDbEllipse
 10
-76.95677224
 20
299.52696439
 30
0.0
 11
21.34953045
 21
-21.07599463
 31
0.0
 40
0.02458284
 41
1.59505944
 42
3.14159265
  0
ELLIPSE
  5
1CA
100
AcDbEntity
  8
0
100
AcDbEllipse
 10
-76.95677224
 20
299.52696439
 30
0.0
 11
29.98433005
 21
-0.96951090
 31
0.0
 40
0.03451521
 41
1.57191234
 42
3.14159265
  0
ENDBLK
  5
1CB
100
AcDbEntity
  8
0
100
AcDbBlockEnd
  0
BLOCK
  5
1CC
100
AcDbEntity
  8
0
100
AcDbBlockBegin
  2
FROM3D_00007
 70
    64
 10
0.0
 20
0.0
 30
0.0
  3
FROM3D_00007
  0
INSERT
  5
1CD
100
AcDbEntity
  8
0
100
AcDbBlockReference
  2
FROM3D_00008
 10
-0.06143193
 20
75.24065201
 30
0.0
  0
ENDBLK
  5
1CE
100
AcDbEntity
  8
0
100
AcDbBlockEnd
  0
BLOCK
  5
1CF
100
AcDbEntity
  8
0
100
AcDbBlockBegin
  2
FROM3D_00008
 70
    64
 10
-0.06143193
 20
75.24065201
 30
0.0
  3
FROM3D_00008
  0
LINE
  5
1D0
100
AcDbEntity
  8
0
100
AcDbLine
 10
-0.06143193
 20
75.24065201
 30
0.0
 11
-124.06130986
 21
75.24065201
 31
0.0
  0
LINE
  5
1D1
100
AcDbEntity
  8
0
100
AcDbLine
 10
-124.06130986
 20
80.24065201
 30
0.0
 11
-124.06130986
 21
75.24065201
 31
0.0
  0
LINE
  5
1D2
100
AcDbEntity
  8
0
100
AcDbLine
 10
-124.06130986
 20
80.24065201
 30
0.0
 11
-0.06143193
 21
80.24065201
 31
0.0
  0
POLYLINE
  5
1D3
100
AcDbEntity
  8
0
100
AcDb2dPolyline
 66
     1
  0
VERTEX
  5
1D4
100
AcDbEntity
  8
0
100
AcDbVertex
100
AcDb2dVertex
 10
14.93856676
 20
0.24065201
 30
0.0
  0
VERTEX
  5
1D5
100
AcDbEntity
  8
0
100
AcDbVertex
100
AcDb2dVertex
 10
14.93856622
 20
-2.75934799
 30
0.0
  0
VERTEX
  5
1D6
100
AcDbEntity
  8
0
100
AcDbVertex
100
AcDb2dVertex
 10
-30.06143378
 20
-2.75934799
 30
0.0
  0
SEQEND
  5
1D7
100
AcDbEntity
  8
0
  0
LINE
  5
1D8
100
AcDbEntity
  8
0
100
AcDbLine
 10
-30.06143378
 20
15.24055820
 30
0.0
 11
-30.06143378
 21
-2.75934799
 31
0.0
  0
LINE
  5
1D9
100
AcDbEntity
  8
0
100
AcDbLine
 10
-0.06144173
 20
15.24065201
 30
0.0
 11
-30.06143378
 21
15.24055820
 31
0.0
  0
LINE
  5
1DA
100
AcDbEntity
  8
0
100
AcDbLine
 10
186.93856338
 20
0.24065201
 30
0.0
 11
129.93855061
 21
0.24065201
 31
0.0
  0
LINE
  5
1DB
100
AcDbEntity
  8
0
100
AcDbLine
 10
-109.06134691
 20
75.24065201
 30
0.0
 11
-109.06134691
 21
0.24065201
 31
0.0
  0
LINE
  5
1DC
100
AcDbEntity
  8
0
100
AcDbLine
 10
-30.06144387
 20
0.24065201
 30
0.0
 11
-109.06134691
 21
0.24065201
 31
0.0
  0
POLYLINE
  5
1DD
100
AcDbEntity
  8
0
100
AcDb2dPolyline
 66
     1
  0
VERTEX
  5
1DE
100
AcDbEntity
  8
0
100
AcDbVertex
100
AcDb2dVertex
 10
310.93865309
 20
75.24065201
 30
0.0
  0
VERTEX
  5
1DF
100
AcDbEntity
  8
0
100
AcDbVertex
100
AcDb2dVertex
 10
310.93865309
 20
0.24065201
 30
0.0
  0
VERTEX
  5
1E0
100
AcDbEntity
  8
0
100
AcDbVertex
100
AcDb2dVertex
 10
231.93855613
 20
0.24065201
 30
0.0
  0
SEQEND
  5
1E1
100
AcDbEntity
  8
0
  0
POLYLINE
  5
1E2
100
AcDbEntity
  8
0
100
AcDb2dPolyline
 66
     1
  0
VERTEX
  5
1E3
100
AcDbEntity
  8
0
100
AcDbVertex
100
AcDb2dVertex
 10
-0.06141788
 20
80.24065201
 30
0.0
  0
VERTEX
  5
1E4
100
AcDbEntity
  8
0
100
AcDbVertex
100
AcDb2dVertex
 10
129.93858212
 20
80.24065201
 30
0.0
  0
VERTEX
  5
1E5
100
AcDbEntity
  8
0
100
AcDbVertex
100
AcDb2dVertex
 10
129.93858212
 20
0.24065201
 30
0.0
  0
SEQEND
  5
1E6
100
AcDbEntity
  8
0
  0
LINE
  5
1E7
100
AcDbEntity
  8
0
100
AcDbLine
 10
-0.06141788
 20
0.24065201
 30
0.0
 11
129.93858212
 21
0.24065201
 31
0.0
  0
LINE
  5
1E8
100
AcDbEntity
  8
0
100
AcDbLine
 10
-0.06141788
 20
80.24065201
 30
0.0
 11
-0.06141788
 21
0.24065201
 31
0.0
  0
LINE
  5
1E9
100
AcDbEntity
  8
0
100
AcDbLine
 10
201.93856944
 20
15.24128363
 30
0.0
 11
186.93856622
 21
15.24067273
 31
0.0
  0
LINE
  5
1EA
100
AcDbEntity
  8
0
100
AcDbLine
 10
186.93856985
 20
75.24065201
 30
0.0
 11
186.93856622
 21
15.24067273
 31
0.0
  0
LINE
  5
1EB
100
AcDbEntity
  8
0
100
AcDbLine
 10
201.93857633
 20
75.24065201
 30
0.0
 11
186.93856985
 21
75.24065201
 31
0.0
  0
LINE
  5
1EC
100
AcDbEntity
  8
0
100
AcDbLine
 10
201.93856944
 20
15.24128363
 30
0.0
 11
201.93857633
 21
75.24065201
 31
0.0
  0
LINE
  5
1ED
100
AcDbEntity
  8
0
100
AcDbLine
 10
231.93856622
 20
15.24137744
 30
0.0
 11
201.93856944
 21
15.24128363
 31
0.0
  0
POLYLINE
  5
1EE
100
AcDbEntity
  8
0
100
AcDb2dPolyline
 66
     1
  0
VERTEX
  5
1EF
100
AcDbEntity
  8
0
100
AcDbVertex
100
AcDb2dVertex
 10
231.93856622
 20
15.24137744
 30
0.0
  0
VERTEX
  5
1F0
100
AcDbEntity
  8
0
100
AcDbVertex
100
AcDb2dVertex
 10
231.93856622
 20
-2.75934799
 30
0.0
  0
VERTEX
  5
1F1
100
AcDbEntity
  8
0
100
AcDbVertex
100
AcDb2dVertex
 10
186.93856622
 20
-2.75934799
 30
0.0
  0
SEQEND
  5
1F2
100
AcDbEntity
  8
0
  0
LINE
  5
1F3
100
AcDbEntity
  8
0
100
AcDbLine
 10
186.93856622
 20
15.24067273
 30
0.0
 11
186.93856622
 21
-2.75934799
 31
0.0
  0
LINE
  5
1F4
100
AcDbEntity
  8
0
100
AcDbLine
 10
325.93844600
 20
75.24065201
 30
0.0
 11
201.93857633
 21
75.24065201
 31
0.0
  0
LINE
  5
1F5
100
AcDbEntity
  8
0
100
AcDbLine
 10
325.93844600
 20
80.24065201
 30
0.0
 11
325.93844600
 21
75.24065201
 31
0.0
  0
LINE
  5
1F6
100
AcDbEntity
  8
0
100
AcDbLine
 10
129.93856807
 20
80.24065201
 30
0.0
 11
325.93844600
 21
80.24065201
 31
0.0
  0
LINE
  5
1F7
100
AcDbEntity
  8
0
100
AcDbLine
 10
186.93856985
 20
75.24065201
 30
0.0
 11
129.93856807
 21
75.24065201
 31
0.0
  0
ENDBLK
  5
1F8
100
AcDbEntity
  8
0
100
AcDbBlockEnd
  0
BLOCK
  5
1F9
100
AcDbEntity
  8
0
100
AcDbBlockBegin
  2
FROM3D_00009
 70
    64
 10
0.0
 20
0.0
 30
0.0
  3
FROM3D_00009
  0
INSERT
  5
1FA
100
AcDbEntity
  8
0
100
AcDbBlockReference
  2
FROM3D_00010
 10
296.43649287
 20
567.63249771
 30
0.0
  0
ENDBLK
  5
1FB
100
AcDbEntity
  8
0
100
AcDbBlockEnd
  0
BLOCK
  5
1FC
100
AcDbEntity
  8
0
100
AcDbBlockBegin
  2
FROM3D_00010
 70
    64
 10
296.43649287
 20
567.63249771
 30
0.0
  3
FROM3D_00010
  0
CIRCLE
  5
1FD
100
AcDbEntity
  8
LE_ALL
100
AcDbCircle
  6
PHANTOM
 62
     1
 10
296.43649287
 20
560.63249771
 30
0.0
 40
7.00000000
  0
LINE
  5
1FE
100
AcDbEntity
  8
LE_ALL
100
AcDbLine
  6
PHANTOM
 62
     1
 10
308.87021108
 20
520.88910276
 30
0.0
 11
311.53939395
 21
556.47625718
 31
0.0
  0
ARC
  5
1FF
100
AcDbEntity
  8
LE_ALL
100
AcDbCircle
  6
PHANTOM
 62
     1
 10
293.58981318
 20
557.82243912
 30
0.0
 40
17.99999044
100
AcDbArc
 50
-4.289037087
 51
93.549864520
  0
LINE
  5
200
100
AcDbEntity
  8
LE_ALL
100
AcDbLine
  6
PHANTOM
 62
     1
 10
292.47530430
 20
575.78789279
 30
0.0
 11
256.53272175
 21
573.55815074
 31
0.0
  0
CIRCLE
  5
201
100
AcDbEntity
  8
LE_ALL
100
AcDbCircle
  6
PHANTOM
 62
     1
 10
-94.55935674
 20
560.63249771
 30
0.0
 40
7.00000000
  0
LINE
  5
202
100
AcDbEntity
  8
LE_ALL
100
AcDbLine
  6
PHANTOM
 62
     1
 10
-90.59816817
 20
575.78789279
 30
0.0
 11
-54.65558562
 21
573.55815074
 31
0.0
  0
ARC
  5
203
100
AcDbEntity
  8
LE_ALL
100
AcDbCircle
  6
PHANTOM
 62
     1
 10
-91.71267705
 20
557.82243912
 30
0.0
 40
17.99999044
100
AcDbArc
 50
86.450135480
 51
-175.710962913
  0
LINE
  5
204
100
AcDbEntity
  8
LE_ALL
100
AcDbLine
  6
PHANTOM
 62
     1
 10
-106.99307494
 20
520.88910276
 30
0.0
 11
-109.66225782
 21
556.47625718
 31
0.0
  0
LINE
  5
205
100
AcDbEntity
  8
LE_ALL
100
AcDbLine
  6
PHANTOM
 62
     1
 10
311.89823249
 20
427.24065201
 30
0.0
 11
281.91605219
 21
427.24065201
 31
0.0
  0
LINE
  5
206
100
AcDbEntity
  8
LE_ALL
100
AcDbLine
  6
PHANTOM
 62
     1
 10
278.83390837
 20
522.56296117
 30
0.0
 11
281.91605219
 21
427.24065201
 31
0.0
  0
ELLIPSE
  5
207
100
AcDbEntity
  8
LE_ALL
100
AcDbEllipse
  6
PHANTOM
 62
     1
 10
278.83390837
 20
521.52696439
 30
0.0
 11
29.98433005
 21
0.96951090
 31
0.0
 40
0.03451521
 41
0.00000000
 42
1.56968032
  0
POLYLINE
  5
208
100
AcDbEntity
  8
LE_ALL
100
AcDb2dPolyline
  6
PHANTOM
 62
     1
 66
     1
  0
VERTEX
  5
209
100
AcDbEntity
  8
LE_ALL
100
AcDbVertex
100
AcDb2dVertex
 10
311.89823249
 20
427.24065201
 30
0.0
  0
VERTEX
  5
20A
100
AcDbEntity
  8
LE_ALL
100
AcDbVertex
100
AcDb2dVertex
 10
308.81823842
 20
522.49647529
 30
0.0
 42
-.000000000
  0
VERTEX
  5
20B
100
AcDbEntity
  8
LE_ALL
100
AcDbVertex
100
AcDb2dVertex
 10
308.81823842
 20
522.49647529
 30
0.0
  0
SEQEND
  5
20C
100
AcDbEntity
  8
LE_ALL
  0
ARC
  5
20D
100
AcDbEntity
  8
LE_ALL
100
AcDbCircle
  6
PHANTOM
 62
     1
 10
278.83390837
 20
521.52696439
 30
0.0
 40
30.00000000
100
AcDbArc
 50
1.862883017
 51
44.630594289
  0
ELLIPSE
  5
20E
100
AcDbEntity
  8
LE_ALL
100
AcDbEllipse
  6
PHANTOM
 62
     1
 10
278.83390837
 20
521.52696439
 30
0.0
 11
21.34953045
 21
21.07599463
 31
0.0
 40
0.02458284
 41
0.0
 42
1.54653321
  0
LINE
  5
20F
100
AcDbEntity
  8
LE_ALL
100
AcDbLine
  6
PHANTOM
 62
     1
 10
257.10669513
 20
544.57216211
 30
0.0
 11
278.83390837
 21
522.56296117
 31
0.0
  0
ELLIPSE
  5
210
100
AcDbEntity
  8
LE_ALL
100
AcDbEllipse
  6
PHANTOM
 62
     1
 10
257.10669513
 20
543.53616533
 30
0.0
 11
21.34953045
 21
21.07599463
 31
0.0
 40
0.02458284
 41
0.00000000
 42
1.54653321
  0
LINE
  5
211
100
AcDbEntity
  8
LE_ALL
100
AcDbLine
  6
PHANTOM
 62
     1
 10
300.18343882
 20
542.60295901
 30
0.0
 11
278.45622558
 21
564.61215996
 31
0.0
  0
POLYLINE
  5
212
100
AcDbEntity
  8
LE_ALL
100
AcDb2dPolyline
  6
PHANTOM
 62
     1
 66
     1
  0
VERTEX
  5
213
100
AcDbEntity
  8
LE_ALL
100
AcDbVertex
100
AcDb2dVertex
 10
278.45339498
 20
564.61502690
 30
0.0
 42
0.194407139
  0
VERTEX
  5
214
100
AcDbEntity
  8
LE_ALL
100
AcDbVertex
100
AcDb2dVertex
 10
257.81651685
 20
573.52776671
 30
0.0
  0
SEQEND
  5
215
100
AcDbEntity
  8
LE_ALL
  0
ELLIPSE
  5
216
100
AcDbEntity
  8
LE_ALL
100
AcDbEllipse
  6
PHANTOM
 62
     1
 10
257.10669513
 20
543.53616533
 30
0.0
 11
-0.70982172
 21
-29.99160138
 31
0.0
 40
0.00081757
 41
3.14159265
 42
4.67785856
  0
LINE
  5
217
100
AcDbEntity
  8
LE_ALL
100
AcDbLine
  6
PHANTOM
 62
     1
 10
100.93856807
 20
548.26824781
 30
0.0
 11
257.10669513
 21
544.57216211
 31
0.0
  0
LINE
  5
218
100
AcDbEntity
  8
LE_ALL
100
AcDbLine
  6
PHANTOM
 62
     1
 10
100.93856807
 20
548.26824781
 30
0.0
 11
100.93856807
 21
577.24065201
 31
0.0
  0
POLYLINE
  5
219
100
AcDbEntity
  8
LE_ALL
100
AcDb2dPolyline
  6
PHANTOM
 62
     1
 66
     1
  0
VERTEX
  5
21A
100
AcDbEntity
  8
LE_ALL
100
AcDbVertex
100
AcDb2dVertex
 10
257.81651685
 20
573.52776671
 30
0.0
  0
VERTEX
  5
21B
100
AcDbEntity
  8
LE_ALL
100
AcDbVertex
100
AcDb2dVertex
 10
100.93856807
 20
577.24065201
 30
0.0
  0
VERTEX
  5
21C
100
AcDbEntity
  8
LE_ALL
100
AcDbVertex
100
AcDb2dVertex
 10
-55.93938072
 20
573.52776671
 30
0.0
  0
SEQEND
  5
21D
100
AcDbEntity
  8
LE_ALL
  0
ELLIPSE
  5
21E
100
AcDbEntity
  8
LE_ALL
100
AcDbEllipse
  6
PHANTOM
 62
     1
 10
-55.22955899
 20
543.53616533
 30
0.0
 11
0.70982172
 21
-29.99160138
 31
0.0
 40
0.00081757
 41
1.60532675
 42
3.14159265
  0
LINE
  5
21F
100
AcDbEntity
  8
LE_ALL
100
AcDbLine
  6
PHANTOM
 62
     1
 10
-55.22955899
 20
544.57216211
 30
0.0
 11
100.93856807
 21
548.26824781
 31
0.0
  0
ELLIPSE
  5
220
100
AcDbEntity
  8
LE_ALL
100
AcDbEllipse
  6
PHANTOM
 62
     1
 10
-55.22955899
 20
543.53616533
 30
0.0
 11
21.34953045
 21
-21.07599463
 31
0.0
 40
0.02458284
 41
1.59505944
 42
3.14159265
  0
ARC
  5
221
100
AcDbEntity
  8
LE_ALL
100
AcDbCircle
  6
PHANTOM
 62
     1
 10
-55.22955899
 20
543.53616533
 30
0.0
 40
30.00000000
100
AcDbArc
 50
91.355786152
 51
135.361711172
  0
LINE
  5
222
100
AcDbEntity
  8
LE_ALL
100
AcDbLine
  6
PHANTOM
 62
     1
 10
-76.57908945
 20
564.61215996
 30
0.0
 11
-98.30630269
 21
542.60295901
 31
0.0
  0
ELLIPSE
  5
223
100
AcDbEntity
  8
LE_ALL
100
AcDbEllipse
  6
PHANTOM
 62
     1
 10
-76.95677224
 20
521.52696439
 30
0.0
 11
21.34953045
 21
-21.07599463
 31
0.0
 40
0.02458284
 41
1.59505944
 42
3.14159265
  0
LINE
  5
224
100
AcDbEntity
  8
LE_ALL
100
AcDbLine
  6
PHANTOM
 62
     1
 10
-76.95677224
 20
522.56296117
 30
0.0
 11
-55.22955899
 21
544.57216211
 31
0.0
  0
ELLIPSE
  5
225
100
AcDbEntity
  8
LE_ALL
100
AcDbEllipse
  6
PHANTOM
 62
     1
 10
-76.95677224
 20
521.52696439
 30
0.0
 11
29.98433005
 21
-0.96951090
 31
0.0
 40
0.03451521
 41
1.57191234
 42
3.14159265
  0
ARC
  5
226
100
AcDbEntity
  8
LE_ALL
100
AcDbCircle
  6
PHANTOM
 62
     1
 10
-76.95677224
 20
521.52696439
 30
0.0
 40
30.00000000
100
AcDbArc
 50
135.369405711
 51
178.137116983
  0
LINE
  5
227
100
AcDbEntity
  8
LE_ALL
100
AcDbLine
  6
PHANTOM
 62
     1
 10
-106.94110229
 20
522.49647529
 30
0.0
 11
-110.02109636
 21
427.24065201
 31
0.0
  0
LINE
  5
228
100
AcDbEntity
  8
LE_ALL
100
AcDbLine
  6
PHANTOM
 62
     1
 10
-80.03891606
 20
427.24065201
 30
0.0
 11
-110.02109636
 21
427.24065201
 31
0.0
  0
LINE
  5
229
100
AcDbEntity
  8
LE_ALL
100
AcDbLine
  6
PHANTOM
 62
     1
 10
-80.03891606
 20
427.24065201
 30
0.0
 11
-76.95677224
 21
522.56296117
 31
0.0
  0
LINE
  5
22A
100
AcDbEntity
  8
LE_ALL
100
AcDbLine
  6
PHANTOM
 62
     1
 10
281.91605219
 20
427.24065201
 30
0.0
 11
-80.03891606
 21
427.24065201
 31
0.0
  0
ENDBLK
  5
22B
100
AcDbEntity
  8
0
100
AcDbBlockEnd
  0
BLOCK
  5
22C
100
AcDbEntity
  8
0
100
AcDbBlockBegin
  2
ANS3D03_00011
 70
    64
 10
0.0
 20
0.0
 30
0.0
  3
ANS3D03_00011
  0
INSERT
  5
22D
100
AcDbEntity
  8
0
100
AcDbBlockReference
  2
FIG3D03_00012
 10
0.0
 20
0.0
 30
0.0
  0
ENDBLK
  5
22E
100
AcDbEntity
  8
0
100
AcDbBlockEnd
  0
BLOCK
  5
22F
100
AcDbEntity
  8
0
100
AcDbBlockBegin
  2
FIG3D03_00012
 70
    64
 10
0.0
 20
0.0
 30
0.0
  3
FIG3D03_00012
  0
INSERT
  5
230
100
AcDbEntity
  8
0
100
AcDbBlockReference
  2
FROM3D_00013
 10
0.0
 20
0.0
 30
0.0
  0
ENDBLK
  5
231
100
AcDbEntity
  8
0
100
AcDbBlockEnd
  0
BLOCK
  5
232
100
AcDbEntity
  8
0
100
AcDbBlockBegin
  2
FROM3D_00013
 70
    64
 10
0.0
 20
0.0
 30
0.0
  3
FROM3D_00013
  0
INSERT
  5
233
100
AcDbEntity
  8
0
100
AcDbBlockReference
  2
FROM3D_00014
 10
0.0
 20
0.0
 30
0.0
  0
INSERT
  5
234
100
AcDbEntity
  8
0
100
AcDbBlockReference
  2
FROM3D_00019
 10
0.0
 20
0.0
 30
0.0
  0
ENDBLK
  5
235
100
AcDbEntity
  8
0
100
AcDbBlockEnd
  0
BLOCK
  5
236
100
AcDbEntity
  8
0
100
AcDbBlockBegin
  2
FROM3D_00014
 70
    64
 10
0.0
 20
0.0
 30
0.0
  3
FROM3D_00014
  0
INSERT
  5
237
100
AcDbEntity
  8
0
100
AcDbBlockReference
  2
FROM3D_00015
 10
0.0
 20
0.0
 30
0.0
  0
INSERT
  5
238
100
AcDbEntity
  8
0
100
AcDbBlockReference
  2
FROM3D_00017
 10
0.0
 20
0.0
 30
0.0
  0
ENDBLK
  5
239
100
AcDbEntity
  8
0
100
AcDbBlockEnd
  0
BLOCK
  5
23A
100
AcDbEntity
  8
0
100
AcDbBlockBegin
  2
FROM3D_00015
 70
    64
 10
0.0
 20
0.0
 30
0.0
  3
FROM3D_00015
  0
INSERT
  5
23B
100
AcDbEntity
  8
0
100
AcDbBlockReference
  2
FROM3D_00016
 10
546.02124487
 20
96.87637463
 30
0.0
  0
ENDBLK
  5
23C
100
AcDbEntity
  8
0
100
AcDbBlockEnd
  0
BLOCK
  5
23D
100
AcDbEntity
  8
0
100
AcDbBlockBegin
  2
FROM3D_00016
 70
    64
 10
546.02124487
 20
96.87637463
 30
0.0
  3
FROM3D_00016
  0
POLYLINE
  5
23E
100
AcDbEntity
  8
0
100
AcDb2dPolyline
 66
     1
 70
     1
  0
VERTEX
  5
23F
100
AcDbEntity
  8
0
100
AcDbVertex
100
AcDb2dVertex
 10
546.02124487
 20
96.87637463
 30
0.0
  0
VERTEX
  5
240
100
AcDbEntity
  8
0
100
AcDbVertex
100
AcDb2dVertex
 10
760.93848120
 20
96.87637463
 30
0.0
  0
VERTEX
  5
241
100
AcDbEntity
  8
0
100
AcDbVertex
100
AcDb2dVertex
 10
760.93848120
 20
80.24065201
 30
0.0
  0
VERTEX
  5
242
100
AcDbEntity
  8
0
100
AcDbVertex
100
AcDb2dVertex
 10
546.02124487
 20
80.24065201
 30
0.0
  0
SEQEND
  5
243
100
AcDbEntity
  8
0
  0
ELLIPSE
  5
244
100
AcDbEntity
  8
0
100
AcDbEllipse
 10
593.55979832
 20
299.52696439
 30
0.0
 11
29.98210682
 21
-1.03598784
 31
0.0
 40
0.03229777
 41
1.57191233
 42
3.14159265
  0
LINE
  5
245
100
AcDbEntity
  8
0
100
AcDbLine
 10
586.52400360
 20
96.87637463
 30
0.0
 11
593.55979832
 21
300.49647529
 31
0.0
  0
LINE
  5
246
100
AcDbEntity
  8
0
100
AcDbLine
 10
563.57769151
 20
300.56295223
 30
0.0
 11
556.53959977
 21
96.87637463
 31
0.0
  0
ELLIPSE
  5
247
100
AcDbEntity
  8
0
100
AcDbEllipse
 10
593.55979832
 20
299.52696439
 30
0.0
 11
29.98210682
 21
-1.03598784
 31
0.0
 40
0.70232085
 41
1.59505923
 42
3.14159265
  0
POLYLINE
  5
248
100
AcDbEntity
  8
0
100
AcDb2dPolyline
 66
     1
  0
VERTEX
  5
249
100
AcDbEntity
  8
0
100
AcDbVertex
100
AcDb2dVertex
 10
593.55979832
 20
320.60295901
 30
0.0
  0
VERTEX
  5
24A
100
AcDbEntity
  8
0
100
AcDbVertex
100
AcDb2dVertex
 10
593.55979832
 20
300.49647529
 30
0.0
  0
VERTEX
  5
24B
100
AcDbEntity
  8
0
100
AcDbVertex
100
AcDb2dVertex
 10
648.46704620
 20
300.49647529
 30
0.0
  0
SEQEND
  5
24C
100
AcDbEntity
  8
0
  0
POLYLINE
  5
24D
100
AcDbEntity
  8
0
100
AcDb2dPolyline
 66
     1
  0
VERTEX
  5
24E
100
AcDbEntity
  8
0
100
AcDbVertex
100
AcDb2dVertex
 10
648.46704620
 20
320.60295901
 30
0.0
  0
VERTEX
  5
24F
100
AcDbEntity
  8
0
100
AcDbVertex
100
AcDb2dVertex
 10
593.55979832
 20
320.60295901
 30
0.0
  0
VERTEX
  5
250
100
AcDbEntity
  8
0
100
AcDbVertex
100
AcDb2dVertex
 10
594.32029407
 20
342.61215996
 30
0.0
  0
VERTEX
  5
251
100
AcDbEntity
  8
0
100
AcDbVertex
100
AcDb2dVertex
 10
648.46704620
 20
342.61215996
 30
0.0
  0
SEQEND
  5
252
100
AcDbEntity
  8
0
  0
POLYLINE
  5
253
100
AcDbEntity
  8
0
100
AcDb2dPolyline
 66
     1
  0
VERTEX
  5
254
100
AcDbEntity
  8
0
100
AcDbVertex
100
AcDb2dVertex
 10
648.46704620
 20
351.52776671
 30
0.0
  0
VERTEX
  5
255
100
AcDbEntity
  8
0
100
AcDbVertex
100
AcDb2dVertex
 10
594.32029407
 20
351.52776671
 30
0.0
  0
VERTEX
  5
256
100
AcDbEntity
  8
0
100
AcDbVertex
100
AcDb2dVertex
 10
594.32029407
 20
342.61215996
 30
0.0
  0
SEQEND
  5
257
100
AcDbEntity
  8
0
  0
ELLIPSE
  5
258
100
AcDbEntity
  8
0
100
AcDbEllipse
 10
594.32029407
 20
321.53616533
 30
0.0
 11
29.98210682
 21
-1.03598784
 31
0.0
 40
0.70232085
 41
1.59505923
 42
3.14159265
  0
LINE
  5
259
100
AcDbEntity
  8
0
100
AcDbLine
 10
564.46590008
 20
326.26823888
 30
0.0
 11
564.33818725
 21
322.57215318
 31
0.0
  0
ELLIPSE
  5
25A
100
AcDbEntity
  8
0
100
AcDbEllipse
 10
594.44800690
 20
325.23225103
 30
0.0
 11
-1.03627830
 21
-29.99051280
 31
0.0
 40
0.99971971
 41
3.17612278
 42
4.71238898
  0
LINE
  5
25B
100
AcDbEntity
  8
0
100
AcDbLine
 10
712.48550391
 20
355.24065201
 30
0.0
 11
594.44858739
 21
355.24065201
 31
0.0
  0
POLYLINE
  5
25C
100
AcDbEntity
  8
0
100
AcDb2dPolyline
 66
     1
  0
VERTEX
  5
25D
100
AcDbEntity
  8
0
100
AcDbVertex
100
AcDb2dVertex
 10
712.48550391
 20
355.24065201
 30
0.0
  0
VERTEX
  5
25E
100
AcDbEntity
  8
0
100
AcDbVertex
100
AcDb2dVertex
 10
712.61379834
 20
351.52776671
 30
0.0
  0
VERTEX
  5
25F
100
AcDbEntity
  8
0
100
AcDbVertex
100
AcDb2dVertex
 10
658.46704620
 20
351.52776671
 30
0.0
  0
SEQEND
  5
260
100
AcDbEntity
  8
0
  0
LINE
  5
261
100
AcDbEntity
  8
0
100
AcDbLine
 10
658.46704620
 20
342.61215996
 30
0.0
 11
712.61379834
 21
342.61215996
 31
0.0
  0
LINE
  5
262
100
AcDbEntity
  8
0
100
AcDbLine
 10
712.61379834
 20
351.52776671
 30
0.0
 11
712.61379834
 21
342.61215996
 31
0.0
  0
ELLIPSE
  5
263
100
AcDbEntity
  8
0
100
AcDbEllipse
 10
712.61379834
 20
321.53616533
 30
0.0
 11
29.98210651
 21
1.03599678
 31
0.0
 40
0.99971971
 41
0.00000000
 42
1.53626591
  0
LINE
  5
264
100
AcDbEntity
  8
0
100
AcDbLine
 10
743.35640716
 20
300.56296117
 30
0.0
 11
742.59590485
 21
322.57216211
 31
0.0
  0
LINE
  5
265
100
AcDbEntity
  8
0
100
AcDbLine
 10
750.39455997
 20
96.87637463
 30
0.0
 11
743.35640716
 21
300.56296117
 31
0.0
  0
LINE
  5
266
100
AcDbEntity
  8
0
100
AcDbLine
 10
713.37430065
 20
300.49647529
 30
0.0
 11
720.41015612
 21
96.87637463
 31
0.0
  0
LINE
  5
267
100
AcDbEntity
  8
0
100
AcDbLine
 10
658.46704620
 20
300.49647529
 30
0.0
 11
713.37430065
 21
300.49647529
 31
0.0
  0
LINE
  5
268
100
AcDbEntity
  8
0
100
AcDbLine
 10
713.37430065
 20
320.60295901
 30
0.0
 11
658.46704620
 21
320.60295901
 31
0.0
  0
LINE
  5
269
100
AcDbEntity
  8
0
100
AcDbLine
 10
712.61379834
 20
342.61215996
 30
0.0
 11
713.37430065
 21
320.60295901
 31
0.0
  0
ELLIPSE
  5
26A
100
AcDbEntity
  8
0
100
AcDbEllipse
 10
712.61379834
 20
321.53616533
 30
0.0
 11
29.98210651
 21
1.03599678
 31
0.0
 40
0.70232085
 41
0.00000000
 42
1.54653321
  0
POLYLINE
  5
26B
100
AcDbEntity
  8
0
100
AcDb2dPolyline
 66
     1
  0
VERTEX
  5
26C
100
AcDbEntity
  8
0
100
AcDbVertex
100
AcDb2dVertex
 10
742.59590485
 20
322.57216211
 30
0.0
  0
VERTEX
  5
26D
100
AcDbEntity
  8
0
100
AcDbVertex
100
AcDb2dVertex
 10
742.46819091
 20
326.26824781
 30
0.0
  0
SEQEND
  5
26E
100
AcDbEntity
  8
0
  0
ELLIPSE
  5
26F
100
AcDbEntity
  8
0
100
AcDbEllipse
 10
712.48608440
 20
325.23225103
 30
0.0
 11
1.03628724
 21
-29.99051250
 31
0.0
 40
0.99971971
 41
1.57079633
 42
3.10706223
  0
LINE
  5
270
100
AcDbEntity
  8
0
100
AcDbLine
 10
713.37430065
 20
320.60295901
 30
0.0
 11
713.37430065
 21
300.49647529
 31
0.0
  0
ELLIPSE
  5
271
100
AcDbEntity
  8
0
100
AcDbEllipse
 10
713.37430065
 20
299.52696439
 30
0.0
 11
29.98210651
 21
1.03599678
 31
0.0
 40
0.03229777
 41
0.0
 42
1.56968032
  0
ELLIPSE
  5
272
100
AcDbEntity
  8
0
100
AcDbEllipse
 10
713.37430065
 20
299.52696439
 30
0.0
 11
29.98210651
 21
1.03599678
 31
0.0
 40
0.70232085
 41
0.0
 42
1.54653321
  0
POLYLINE
  5
273
100
AcDbEntity
  8
0
100
AcDb2dPolyline
 66
     1
  0
VERTEX
  5
274
100
AcDbEntity
  8
0
100
AcDbVertex
100
AcDb2dVertex
 10
658.46704620
 20
298.88910276
 30
0.0
  0
VERTEX
  5
275
100
AcDbEntity
  8
0
100
AcDbVertex
100
AcDb2dVertex
 10
648.46704620
 20
298.88910276
 30
0.0
  0
VERTEX
  5
276
100
AcDbEntity
  8
0
100
AcDbVertex
100
AcDb2dVertex
 10
648.46704620
 20
334.47606770
 30
0.0
  0
SEQEND
  5
277
100
AcDbEntity
  8
0
  0
LINE
  5
278
100
AcDbEntity
  8
0
100
AcDbLine
 10
658.46704620
 20
334.47625718
 30
0.0
 11
648.46704620
 21
334.47606770
 31
0.0
  0
LINE
  5
279
100
AcDbEntity
  8
0
100
AcDbLine
 10
658.46704620
 20
298.88910276
 30
0.0
 11
658.46704620
 21
334.47625718
 31
0.0
  0
LINE
  5
27A
100
AcDbEntity
  8
0
100
AcDbLine
 10
658.46704620
 20
353.82242955
 30
0.0
 11
658.46704620
 21
334.47625718
 31
0.0
  0
LINE
  5
27B
100
AcDbEntity
  8
0
100
AcDbLine
 10
648.46704620
 20
353.82242955
 30
0.0
 11
658.46704620
 21
353.82242955
 31
0.0
  0
LINE
  5
27C
100
AcDbEntity
  8
0
100
AcDbLine
 10
648.46704620
 20
334.47606770
 30
0.0
 11
648.46704620
 21
353.82242955
 31
0.0
  0
LINE
  5
27D
100
AcDbEntity
  8
0
100
AcDbLine
 10
594.32029407
 20
351.52776671
 30
0.0
 11
594.44858739
 21
355.24065201
 31
0.0
  0
ELLIPSE
  5
27E
100
AcDbEntity
  8
0
100
AcDbEllipse
 10
594.32029407
 20
321.53616533
 30
0.0
 11
29.98210682
 21
-1.03598784
 31
0.0
 40
0.99971971
 41
1.60532645
 42
3.14159265
  0
LINE
  5
27F
100
AcDbEntity
  8
0
100
AcDbLine
 10
564.33818725
 20
322.57215318
 30
0.0
 11
563.57769151
 21
300.56295223
 31
0.0
  0
ENDBLK
  5
280
100
AcDbEntity
  8
0
100
AcDbBlockEnd
  0
BLOCK
  5
281
100
AcDbEntity
  8
0
100
AcDbBlockBegin
  2
FROM3D_00017
 70
    64
 10
0.0
 20
0.0
 30
0.0
  3
FROM3D_00017
  0
INSERT
  5
282
100
AcDbEntity
  8
0
100
AcDbBlockReference
  2
FROM3D_00018
 10
749.43848120
 20
-2.75934799
 30
0.0
  0
ENDBLK
  5
283
100
AcDbEntity
  8
0
100
AcDbBlockEnd
  0
BLOCK
  5
284
100
AcDbEntity
  8
0
100
AcDbBlockBegin
  2
FROM3D_00018
 70
    64
 10
749.43848120
 20
-2.75934799
 30
0.0
  3
FROM3D_00018
  0
LINE
  5
285
100
AcDbEntity
  8
0
100
AcDbLine
 10
749.43848120
 20
-2.75934799
 30
0.0
 11
704.43848120
 21
-2.75934799
 31
0.0
  0
LINE
  5
286
100
AcDbEntity
  8
0
100
AcDbLine
 10
704.43848120
 20
0.24065201
 30
0.0
 11
704.43848120
 21
-2.75934799
 31
0.0
  0
POLYLINE
  5
287
100
AcDbEntity
  8
0
100
AcDb2dPolyline
 66
     1
  0
VERTEX
  5
288
100
AcDbEntity
  8
0
100
AcDbVertex
100
AcDb2dVertex
 10
717.43842783
 20
15.24065201
 30
0.0
  0
VERTEX
  5
289
100
AcDbEntity
  8
0
100
AcDbVertex
100
AcDb2dVertex
 10
749.43848120
 20
15.24055820
 30
0.0
  0
VERTEX
  5
28A
100
AcDbEntity
  8
0
100
AcDbVertex
100
AcDb2dVertex
 10
749.43848120
 20
-2.75934799
 30
0.0
  0
SEQEND
  5
28B
100
AcDbEntity
  8
0
  0
LINE
  5
28C
100
AcDbEntity
  8
0
100
AcDbLine
 10
557.43848120
 20
15.24064504
 30
0.0
 11
589.43842783
 21
15.24065201
 31
0.0
  0
POLYLINE
  5
28D
100
AcDbEntity
  8
0
100
AcDb2dPolyline
 66
     1
  0
VERTEX
  5
28E
100
AcDbEntity
  8
0
100
AcDbVertex
100
AcDb2dVertex
 10
602.43848120
 20
0.24065201
 30
0.0
  0
VERTEX
  5
28F
100
AcDbEntity
  8
0
100
AcDbVertex
100
AcDb2dVertex
 10
602.43848120
 20
-2.75934799
 30
0.0
  0
VERTEX
  5
290
100
AcDbEntity
  8
0
100
AcDbVertex
100
AcDb2dVertex
 10
557.43848120
 20
-2.75934799
 30
0.0
  0
SEQEND
  5
291
100
AcDbEntity
  8
0
  0
LINE
  5
292
100
AcDbEntity
  8
0
100
AcDbLine
 10
557.43848120
 20
15.24064504
 30
0.0
 11
557.43848120
 21
-2.75934799
 31
0.0
  0
LINE
  5
293
100
AcDbEntity
  8
0
100
AcDbLine
 10
545.93848120
 20
75.24065201
 30
0.0
 11
760.93848120
 21
75.24065201
 31
0.0
  0
LINE
  5
294
100
AcDbEntity
  8
0
100
AcDbLine
 10
760.93848120
 20
80.24065201
 30
0.0
 11
760.93848120
 21
75.24065201
 31
0.0
  0
POLYLINE
  5
295
100
AcDbEntity
  8
0
100
AcDb2dPolyline
 66
     1
  0
VERTEX
  5
296
100
AcDbEntity
  8
0
100
AcDbVertex
100
AcDb2dVertex
 10
760.93848120
 20
80.24065201
 30
0.0
  0
VERTEX
  5
297
100
AcDbEntity
  8
0
100
AcDbVertex
100
AcDb2dVertex
 10
545.93848120
 20
80.24065201
 30
0.0
  0
VERTEX
  5
298
100
AcDbEntity
  8
0
100
AcDbVertex
100
AcDb2dVertex
 10
545.93848120
 20
75.24065201
 30
0.0
  0
SEQEND
  5
299
100
AcDbEntity
  8
0
  0
LINE
  5
29A
100
AcDbEntity
  8
0
100
AcDbLine
 10
557.43848120
 20
15.24065201
 30
0.0
 11
545.93844600
 21
75.24065201
 31
0.0
  0
LINE
  5
29B
100
AcDbEntity
  8
0
100
AcDbLine
 10
749.43837310
 20
15.24067273
 30
0.0
 11
749.43837310
 21
15.24067273
 31
0.0
  0
LINE
  5
29C
100
AcDbEntity
  8
0
100
AcDbLine
 10
749.43848120
 20
0.24065201
 30
0.0
 11
779.43841079
 21
0.24065201
 31
0.0
  0
LINE
  5
29D
100
AcDbEntity
  8
0
100
AcDbLine
 10
779.43841079
 20
80.24065201
 30
0.0
 11
779.43841079
 21
0.24065201
 31
0.0
  0
LINE
  5
29E
100
AcDbEntity
  8
0
100
AcDbLine
 10
760.93848120
 20
80.24065201
 30
0.0
 11
779.43841079
 21
80.24065201
 31
0.0
  0
LINE
  5
29F
100
AcDbEntity
  8
0
100
AcDbLine
 10
717.43847268
 20
0.24065201
 30
0.0
 11
589.43847268
 21
0.24065201
 31
0.0
  0
LINE
  5
2A0
100
AcDbEntity
  8
0
100
AcDbLine
 10
589.43847268
 20
75.24065201
 30
0.0
 11
589.43847268
 21
0.24065201
 31
0.0
  0
LINE
  5
2A1
100
AcDbEntity
  8
0
100
AcDbLine
 10
717.43847268
 20
75.24065201
 30
0.0
 11
717.43847268
 21
0.24065201
 31
0.0
  0
ENDBLK
  5
2A2
100
AcDbEntity
  8
0
100
AcDbBlockEnd
  0
BLOCK
  5
2A3
100
AcDbEntity
  8
0
100
AcDbBlockBegin
  2
FROM3D_00019
 70
    64
 10
0.0
 20
0.0
 30
0.0
  3
FROM3D_00019
  0
INSERT
  5
2A4
100
AcDbEntity
  8
0
100
AcDbBlockReference
  2
FROM3D_00020
 10
648.46704620
 20
575.78789279
 30
0.0
  0
ENDBLK
  5
2A5
100
AcDbEntity
  8
0
100
AcDbBlockEnd
  0
BLOCK
  5
2A6
100
AcDbEntity
  8
0
100
AcDbBlockBegin
  2
FROM3D_00020
 70
    64
 10
648.46704620
 20
575.78789279
 30
0.0
  3
FROM3D_00020
  0
LINE
  5
2A7
100
AcDbEntity
  8
LE_ALL
100
AcDbLine
  6
PHANTOM
 62
     1
 10
648.46704620
 20
575.78789279
 30
0.0
 11
658.46704620
 21
575.78789279
 31
0.0
  0
LINE
  5
2A8
100
AcDbEntity
  8
LE_ALL
100
AcDbLine
  6
PHANTOM
 10
648.46704620
 20
567.63249771
 30
0.0
 11
658.46704620
 21
567.63249771
 31
0.0
  0
LINE
  5
2A9
100
AcDbEntity
  8
LE_ALL
100
AcDbLine
  6
PHANTOM
 10
648.46704620
 20
553.63249771
 30
0.0
 11
658.46704620
 21
553.63249771
 31
0.0
  0
POLYLINE
  5
2AA
100
AcDbEntity
  8
LE_ALL
100
AcDb2dPolyline
  6
PHANTOM
 62
     1
 66
     1
  0
VERTEX
  5
2AB
100
AcDbEntity
  8
LE_ALL
100
AcDbVertex
100
AcDb2dVertex
 10
716.66575470
 20
427.24065201
 30
0.0
  0
VERTEX
  5
2AC
100
AcDbEntity
  8
LE_ALL
100
AcDbVertex
100
AcDb2dVertex
 10
590.26837269
 20
427.24065201
 30
0.0
  0
VERTEX
  5
2AD
100
AcDbEntity
  8
LE_ALL
100
AcDbVertex
100
AcDb2dVertex
 10
593.55979832
 20
522.49647529
 30
0.0
  0
VERTEX
  5
2AE
100
AcDbEntity
  8
LE_ALL
100
AcDbVertex
100
AcDb2dVertex
 10
648.46704620
 20
522.49647529
 30
0.0
  0
SEQEND
  5
2AF
100
AcDbEntity
  8
LE_ALL
  0
LINE
  5
2B0
100
AcDbEntity
  8
LE_ALL
100
AcDbLine
  6
PHANTOM
 62
     1
 10
658.46704620
 20
520.88910276
 30
0.0
 11
648.46704620
 21
520.88910276
 31
0.0
  0
POLYLINE
  5
2B1
100
AcDbEntity
  8
LE_ALL
100
AcDb2dPolyline
  6
PHANTOM
 62
     1
 66
     1
  0
VERTEX
  5
2B2
100
AcDbEntity
  8
LE_ALL
100
AcDbVertex
100
AcDb2dVertex
 10
658.46704620
 20
522.49647529
 30
0.0
  0
VERTEX
  5
2B3
100
AcDbEntity
  8
LE_ALL
100
AcDbVertex
100
AcDb2dVertex
 10
713.37430065
 20
522.49647529
 30
0.0
  0
VERTEX
  5
2B4
100
AcDbEntity
  8
LE_ALL
100
AcDbVertex
100
AcDb2dVertex
 10
716.66575470
 20
427.24065201
 30
0.0
  0
SEQEND
  5
2B5
100
AcDbEntity
  8
LE_ALL
  0
LINE
  5
2B6
100
AcDbEntity
  8
LE_ALL
100
AcDbLine
  6
PHANTOM
 62
     1
 10
746.65015855
 20
427.24065201
 30
0.0
 11
716.66575470
 21
427.24065201
 31
0.0
  0
POLYLINE
  5
2B7
100
AcDbEntity
  8
LE_ALL
100
AcDb2dPolyline
  6
PHANTOM
 62
     1
 66
     1
  0
VERTEX
  5
2B8
100
AcDbEntity
  8
LE_ALL
100
AcDbVertex
100
AcDb2dVertex
 10
746.65015855
 20
427.24065201
 30
0.0
  0
VERTEX
  5
2B9
100
AcDbEntity
  8
LE_ALL
100
AcDbVertex
100
AcDb2dVertex
 10
743.35640716
 20
522.56296117
 30
0.0
  0
SEQEND
  5
2BA
100
AcDbEntity
  8
LE_ALL
  0
ELLIPSE
  5
2BB
100
AcDbEntity
  8
LE_ALL
100
AcDbEllipse
  6
PHANTOM
 62
     1
 10
713.37430065
 20
521.52696439
 30
0.0
 11
29.98210651
 21
1.03599678
 31
0.0
 40
0.03229777
 41
0.00000000
 42
1.56968032
  0
LINE
  5
2BC
100
AcDbEntity
  8
LE_ALL
100
AcDbLine
  6
PHANTOM
 62
     1
 10
713.37430065
 20
542.60295901
 30
0.0
 11
713.37430065
 21
522.49647529
 31
0.0
  0
ELLIPSE
  5
2BD
100
AcDbEntity
  8
LE_ALL
100
AcDbEllipse
  6
PHANTOM
 62
     1
 10
713.37430065
 20
521.52696439
 30
0.0
 11
29.98210651
 21
1.03599678
 31
0.0
 40
0.70232085
 41
0.00000000
 42
1.54653321
  0
LINE
  5
2BE
100
AcDbEntity
  8
LE_ALL
100
AcDbLine
  6
PHANTOM
 62
     1
 10
743.35640716
 20
522.56296117
 30
0.0
 11
742.59590485
 21
544.57216211
 31
0.0
  0
ELLIPSE
  5
2BF
100
AcDbEntity
  8
LE_ALL
100
AcDbEllipse
  6
PHANTOM
 62
     1
 10
712.61379834
 20
543.53616533
 30
0.0
 11
29.98210651
 21
1.03599678
 31
0.0
 40
0.70232085
 41
0.00000000
 42
1.54653321
  0
POLYLINE
  5
2C0
100
AcDbEntity
  8
LE_ALL
100
AcDb2dPolyline
  6
PHANTOM
 62
     1
 66
     1
  0
VERTEX
  5
2C1
100
AcDbEntity
  8
LE_ALL
100
AcDbVertex
100
AcDb2dVertex
 10
712.61379834
 20
564.61215996
 30
0.0
  0
VERTEX
  5
2C2
100
AcDbEntity
  8
LE_ALL
100
AcDbVertex
100
AcDb2dVertex
 10
713.37430065
 20
542.60295901
 30
0.0
  0
VERTEX
  5
2C3
100
AcDbEntity
  8
LE_ALL
100
AcDbVertex
100
AcDb2dVertex
 10
658.46704620
 20
542.60295901
 30
0.0
  0
SEQEND
  5
2C4
100
AcDbEntity
  8
LE_ALL
  0
LINE
  5
2C5
100
AcDbEntity
  8
LE_ALL
100
AcDbLine
  6
PHANTOM
 62
     1
 10
658.46704620
 20
564.61215996
 30
0.0
 11
712.61379834
 21
564.61215996
 31
0.0
  0
LINE
  5
2C6
100
AcDbEntity
  8
LE_ALL
100
AcDbLine
  6
PHANTOM
 62
     1
 10
712.61379834
 20
573.52776671
 30
0.0
 11
712.61379834
 21
564.61215996
 31
0.0
  0
ELLIPSE
  5
2C7
100
AcDbEntity
  8
LE_ALL
100
AcDbEllipse
  6
PHANTOM
 62
     1
 10
712.61379834
 20
543.53616533
 30
0.0
 11
29.98210651
 21
1.03599678
 31
0.0
 40
0.99971971
 41
0.00768422
 42
1.53626591
  0
POLYLINE
  5
2C8
100
AcDbEntity
  8
LE_ALL
100
AcDb2dPolyline
  6
PHANTOM
 62
     1
 66
     1
  0
VERTEX
  5
2C9
100
AcDbEntity
  8
LE_ALL
100
AcDbVertex
100
AcDb2dVertex
 10
742.59590485
 20
544.57216211
 30
0.0
  0
VERTEX
  5
2CA
100
AcDbEntity
  8
LE_ALL
100
AcDbVertex
100
AcDb2dVertex
 10
742.46819091
 20
548.26824781
 30
0.0
  0
SEQEND
  5
2CB
100
AcDbEntity
  8
LE_ALL
  0
ELLIPSE
  5
2CC
100
AcDbEntity
  8
LE_ALL
100
AcDbEllipse
  6
PHANTOM
 62
     1
 10
712.48608440
 20
547.23225103
 30
0.0
 11
1.03628724
 21
-29.99051250
 31
0.0
 40
0.99971971
 41
1.57079633
 42
3.10706223
  0
POLYLINE
  5
2CD
100
AcDbEntity
  8
LE_ALL
100
AcDb2dPolyline
  6
PHANTOM
 62
     1
 66
     1
  0
VERTEX
  5
2CE
100
AcDbEntity
  8
LE_ALL
100
AcDbVertex
100
AcDb2dVertex
 10
712.48550391
 20
577.24065201
 30
0.0
  0
VERTEX
  5
2CF
100
AcDbEntity
  8
LE_ALL
100
AcDbVertex
100
AcDb2dVertex
 10
712.61379834
 20
573.52776671
 30
0.0
  0
VERTEX
  5
2D0
100
AcDbEntity
  8
LE_ALL
100
AcDbVertex
100
AcDb2dVertex
 10
658.46704620
 20
573.52776671
 30
0.0
  0
SEQEND
  5
2D1
100
AcDbEntity
  8
LE_ALL
  0
LINE
  5
2D2
100
AcDbEntity
  8
LE_ALL
100
AcDbLine
  6
PHANTOM
 62
     1
 10
658.46704620
 20
573.55815074
 30
0.0
 11
648.46704620
 21
573.55815074
 31
0.0
  0
POLYLINE
  5
2D3
100
AcDbEntity
  8
LE_ALL
100
AcDb2dPolyline
  6
PHANTOM
 62
     1
 66
     1
  0
VERTEX
  5
2D4
100
AcDbEntity
  8
LE_ALL
100
AcDbVertex
100
AcDb2dVertex
 10
648.46704620
 20
573.52776671
 30
0.0
  0
VERTEX
  5
2D5
100
AcDbEntity
  8
LE_ALL
100
AcDbVertex
100
AcDb2dVertex
 10
594.32029407
 20
573.52776671
 30
0.0
  0
VERTEX
  5
2D6
100
AcDbEntity
  8
LE_ALL
100
AcDbVertex
100
AcDb2dVertex
 10
594.44858739
 20
577.24065201
 30
0.0
  0
SEQEND
  5
2D7
100
AcDbEntity
  8
LE_ALL
  0
LINE
  5
2D8
100
AcDbEntity
  8
LE_ALL
100
AcDbLine
  6
PHANTOM
 62
     1
 10
712.48550391
 20
577.24065201
 30
0.0
 11
594.44858739
 21
577.24065201
 31
0.0
  0
ELLIPSE
  5
2D9
100
AcDbEntity
  8
LE_ALL
100
AcDbEllipse
  6
PHANTOM
 62
     1
 10
594.44800690
 20
547.23225103
 30
0.0
 11
-1.03627830
 21
-29.99051280
 31
0.0
 40
0.99971971
 41
3.17612278
 42
4.71238898
  0
LINE
  5
2DA
100
AcDbEntity
  8
LE_ALL
100
AcDbLine
  6
PHANTOM
 62
     1
 10
564.46590008
 20
548.26823888
 30
0.0
 11
564.33818725
 21
544.57215318
 31
0.0
  0
ELLIPSE
  5
2DB
100
AcDbEntity
  8
LE_ALL
100
AcDbEllipse
  6
PHANTOM
 62
     1
 10
594.32029407
 20
543.53616533
 30
0.0
 11
29.98210682
 21
-1.03598784
 31
0.0
 40
0.99971971
 41
1.60532645
 42
3.13390844
  0
LINE
  5
2DC
100
AcDbEntity
  8
LE_ALL
100
AcDbLine
  6
PHANTOM
 62
     1
 10
594.32029407
 20
573.52776671
 30
0.0
 11
594.32029407
 21
564.61215996
 31
0.0
  0
ELLIPSE
  5
2DD
100
AcDbEntity
  8
LE_ALL
100
AcDbEllipse
  6
PHANTOM
 62
     1
 10
594.32029407
 20
543.53616533
 30
0.0
 11
29.98210682
 21
-1.03598784
 31
0.0
 40
0.70232085
 41
1.59505923
 42
3.14159265
  0
POLYLINE
  5
2DE
100
AcDbEntity
  8
LE_ALL
100
AcDb2dPolyline
  6
PHANTOM
 62
     1
 66
     1
  0
VERTEX
  5
2DF
100
AcDbEntity
  8
LE_ALL
100
AcDbVertex
100
AcDb2dVertex
 10
564.33818725
 20
544.57215318
 30
0.0
  0
VERTEX
  5
2E0
100
AcDbEntity
  8
LE_ALL
100
AcDbVertex
100
AcDb2dVertex
 10
563.57769151
 20
522.56295223
 30
0.0
  0
SEQEND
  5
2E1
100
AcDbEntity
  8
LE_ALL
  0
ELLIPSE
  5
2E2
100
AcDbEntity
  8
LE_ALL
100
AcDbEllipse
  6
PHANTOM
 62
     1
 10
593.55979832
 20
521.52696439
 30
0.0
 11
29.98210682
 21
-1.03598784
 31
0.0
 40
0.70232085
 41
1.59505923
 42
3.14133845
  0
POLYLINE
  5
2E3
100
AcDbEntity
  8
LE_ALL
100
AcDb2dPolyline
  6
PHANTOM
 62
     1
 66
     1
  0
VERTEX
  5
2E4
100
AcDbEntity
  8
LE_ALL
100
AcDbVertex
100
AcDb2dVertex
 10
593.55979832
 20
542.60295901
 30
0.0
  0
VERTEX
  5
2E5
100
AcDbEntity
  8
LE_ALL
100
AcDbVertex
100
AcDb2dVertex
 10
594.32029407
 20
564.61215996
 30
0.0
  0
VERTEX
  5
2E6
100
AcDbEntity
  8
LE_ALL
100
AcDbVertex
100
AcDb2dVertex
 10
648.46704620
 20
564.61215996
 30
0.0
  0
SEQEND
  5
2E7
100
AcDbEntity
  8
LE_ALL
  0
POLYLINE
  5
2E8
100
AcDbEntity
  8
LE_ALL
100
AcDb2dPolyline
  6
PHANTOM
 62
     1
 66
     1
  0
VERTEX
  5
2E9
100
AcDbEntity
  8
LE_ALL
100
AcDbVertex
100
AcDb2dVertex
 10
648.46704620
 20
542.60295901
 30
0.0
  0
VERTEX
  5
2EA
100
AcDbEntity
  8
LE_ALL
100
AcDbVertex
100
AcDb2dVertex
 10
593.55979832
 20
542.60295901
 30
0.0
  0
VERTEX
  5
2EB
100
AcDbEntity
  8
LE_ALL
100
AcDbVertex
100
AcDb2dVertex
 10
593.55979832
 20
522.49647529
 30
0.0
  0
SEQEND
  5
2EC
100
AcDbEntity
  8
LE_ALL
  0
ELLIPSE
  5
2ED
100
AcDbEntity
  8
LE_ALL
100
AcDbEllipse
  6
PHANTOM
 62
     1
 10
593.55979832
 20
521.52696439
 30
0.0
 11
29.98210682
 21
-1.03598784
 31
0.0
 40
0.03229777
 41
1.57191233
 42
3.14159265
  0
LINE
  5
2EE
100
AcDbEntity
  8
LE_ALL
100
AcDbLine
  6
PHANTOM
 62
     1
 10
563.57769151
 20
522.56295223
 30
0.0
 11
560.28396886
 21
427.24065201
 31
0.0
  0
LINE
  5
2EF
100
AcDbEntity
  8
LE_ALL
100
AcDbLine
  6
PHANTOM
 62
     1
 10
590.26837269
 20
427.24065201
 30
0.0
 11
560.28396886
 21
427.24065201
 31
0.0
  0
POLYLINE
  5
2F0
100
AcDbEntity
  8
LE_ALL
100
AcDb2dPolyline
  6
PHANTOM
 62
     1
 66
     1
  0
VERTEX
  5
2F1
100
AcDbEntity
  8
LE_ALL
100
AcDbVertex
100
AcDb2dVertex
 10
658.46704620
 20
520.88910276
 30
0.0
  0
VERTEX
  5
2F2
100
AcDbEntity
  8
LE_ALL
100
AcDbVertex
100
AcDb2dVertex
 10
658.46704620
 20
556.47625718
 30
0.0
  0
VERTEX
  5
2F3
100
AcDbEntity
  8
LE_ALL
100
AcDbVertex
100
AcDb2dVertex
 10
648.46704620
 20
556.47606770
 30
0.0
  0
SEQEND
  5
2F4
100
AcDbEntity
  8
LE_ALL
  0
POLYLINE
  5
2F5
100
AcDbEntity
  8
LE_ALL
100
AcDb2dPolyline
  6
PHANTOM
 62
     1
 66
     1
  0
VERTEX
  5
2F6
100
AcDbEntity
  8
LE_ALL
100
AcDbVertex
100
AcDb2dVertex
 10
648.46704620
 20
520.88910276
 30
0.0
  0
VERTEX
  5
2F7
100
AcDbEntity
  8
LE_ALL
100
AcDbVertex
100
AcDb2dVertex
 10
648.46704620
 20
556.47606770
 30
0.0
  0
VERTEX
  5
2F8
100
AcDbEntity
  8
LE_ALL
100
AcDbVertex
100
AcDb2dVertex
 10
648.46704620
 20
575.82242955
 30
0.0
  0
SEQEND
  5
2F9
100
AcDbEntity
  8
LE_ALL
  0
POLYLINE
  5
2FA
100
AcDbEntity
  8
LE_ALL
100
AcDb2dPolyline
  6
PHANTOM
 66
     1
  0
VERTEX
  5
2FB
100
AcDbEntity
  8
LE_ALL
100
AcDbVertex
100
AcDb2dVertex
 10
648.46704620
 20
575.82242955
 30
0.0
  0
VERTEX
  5
2FC
100
AcDbEntity
  8
LE_ALL
100
AcDbVertex
100
AcDb2dVertex
 10
658.46704620
 20
575.82242955
 30
0.0
  0
SEQEND
  5
2FD
100
AcDbEntity
  8
LE_ALL
  0
LINE
  5
2FE
100
AcDbEntity
  8
LE_ALL
100
AcDbLine
  6
PHANTOM
 62
     1
 10
658.46704620
 20
575.82242955
 30
0.0
 11
658.46704620
 21
556.47625718
 31
0.0
  0
ENDBLK
  5
2FF
100
AcDbEntity
  8
0
100
AcDbBlockEnd
  0
BLOCK
  5
300
100
AcDbEntity
  8
0
100
AcDbBlockBegin
  2
ANS3D04_00021
 70
    64
 10
0.0
 20
0.0
 30
0.0
  3
ANS3D04_00021
  0
INSERT
  5
301
100
AcDbEntity
  8
0
100
AcDbBlockReference
  2
FIG3D04_00022
 10
0.0
 20
0.0
 30
0.0
  0
ENDBLK
  5
302
100
AcDbEntity
  8
0
100
AcDbBlockEnd
  0
BLOCK
  5
303
100
AcDbEntity
  8
0
100
AcDbBlockBegin
  2
FIG3D04_00022
 70
    64
 10
0.0
 20
0.0
 30
0.0
  3
FIG3D04_00022
  0
INSERT
  5
304
100
AcDbEntity
  8
0
100
AcDbBlockReference
  2
FROM3D_00023
 10
0.0
 20
0.0
 30
0.0
  0
ENDBLK
  5
305
100
AcDbEntity
  8
0
100
AcDbBlockEnd
  0
BLOCK
  5
306
100
AcDbEntity
  8
0
100
AcDbBlockBegin
  2
FROM3D_00023
 70
    64
 10
0.0
 20
0.0
 30
0.0
  3
FROM3D_00023
  0
INSERT
  5
307
100
AcDbEntity
  8
0
100
AcDbBlockReference
  2
FROM3D_00024
 10
0.0
 20
0.0
 30
0.0
  0
INSERT
  5
308
100
AcDbEntity
  8
0
100
AcDbBlockReference
  2
FROM3D_00029
 10
0.0
 20
0.0
 30
0.0
  0
ENDBLK
  5
309
100
AcDbEntity
  8
0
100
AcDbBlockEnd
  0
BLOCK
  5
30A
100
AcDbEntity
  8
0
100
AcDbBlockBegin
  2
FROM3D_00024
 70
    64
 10
0.0
 20
0.0
 30
0.0
  3
FROM3D_00024
  0
INSERT
  5
30B
100
AcDbEntity
  8
0
100
AcDbBlockReference
  2
FROM3D_00025
 10
0.0
 20
0.0
 30
0.0
  0
INSERT
  5
30C
100
AcDbEntity
  8
0
100
AcDbBlockReference
  2
FROM3D_00027
 10
0.0
 20
0.0
 30
0.0
  0
ENDBLK
  5
30D
100
AcDbEntity
  8
0
100
AcDbBlockEnd
  0
BLOCK
  5
30E
100
AcDbEntity
  8
0
100
AcDbBlockBegin
  2
FROM3D_00025
 70
    64
 10
0.0
 20
0.0
 30
0.0
  3
FROM3D_00025
  0
INSERT
  5
30F
100
AcDbEntity
  8
0
100
AcDbBlockReference
  2
FROM3D_00026
 10
315.40207425
 20
-424.23114490
 30
0.0
  0
ENDBLK
  5
310
100
AcDbEntity
  8
0
100
AcDbBlockEnd
  0
BLOCK
  5
311
100
AcDbEntity
  8
0
100
AcDbBlockBegin
  2
FROM3D_00026
 70
    64
 10
315.40207425
 20
-424.23114490
 30
0.0
  3
FROM3D_00026
  0
ELLIPSE
  5
312
100
AcDbEntity
  8
0
100
AcDbEllipse
 10
285.38639611
 20
-424.19764458
 30
0.0
 11
20.52081827
 21
-21.92969499
 31
0.0
 40
0.99888215
 41
5.53152164
 42
0.81801664
  0
LINE
  5
313
100
AcDbEntity
  8
0
100
AcDbLine
 10
-83.54275782
 20
-454.21554875
 30
0.0
 11
285.41989395
 21
-454.21554875
 31
0.0
  0
ELLIPSE
  5
314
100
AcDbEntity
  8
0
100
AcDbEllipse
 10
-83.50925998
 20
-424.19764458
 30
0.0
 11
-20.52081828
 21
-21.92969498
 31
0.0
 40
0.99888215
 41
5.46516866
 42
0.75166367
  0
POLYLINE
  5
315
100
AcDbEntity
  8
0
100
AcDb2dPolyline
 66
     1
  0
VERTEX
  5
316
100
AcDbEntity
  8
0
100
AcDbVertex
100
AcDb2dVertex
 10
-113.52493812
 20
-424.23114490
 30
0.0
  0
VERTEX
  5
317
100
AcDbEntity
  8
0
100
AcDbVertex
100
AcDb2dVertex
 10
-113.52493812
 20
-290.34499238
 30
0.0
  0
SEQEND
  5
318
100
AcDbEntity
  8
0
  0
ELLIPSE
  5
319
100
AcDbEntity
  8
0
100
AcDbEllipse
 10
-83.50925998
 20
-290.37849241
 30
0.0
 11
20.52091253
 21
-21.92960637
 31
0.0
 40
0.99888216
 41
2.38992467
 42
3.95960500
  0
POLYLINE
  5
31A
100
AcDbEntity
  8
0
100
AcDb2dPolyline
 66
     1
  0
VERTEX
  5
31B
100
AcDbEntity
  8
0
100
AcDbVertex
100
AcDb2dVertex
 10
-83.54275753
 20
-260.36058855
 30
0.0
  0
VERTEX
  5
31C
100
AcDbEntity
  8
0
100
AcDbVertex
100
AcDb2dVertex
 10
285.41989366
 20
-260.36058855
 30
0.0
  0
SEQEND
  5
31D
100
AcDbEntity
  8
0
  0
ELLIPSE
  5
31E
100
AcDbEntity
  8
0
100
AcDbEllipse
 10
285.38639611
 20
-290.37849241
 30
0.0
 11
-20.52091253
 21
-21.92960637
 31
0.0
 40
0.99888216
 41
2.32358031
 42
3.89326064
  0
LINE
  5
31F
100
AcDbEntity
  8
0
100
AcDbLine
 10
315.40207425
 20
-424.23114490
 30
0.0
 11
315.40207425
 21
-290.34499238
 31
0.0
  0
LINE
  5
320
100
AcDbEntity
  8
0
100
AcDbLine
 10
315.40207425
 20
-424.23114490
 30
0.0
 11
311.89823249
 21
-420.48674348
 31
0.0
  0
LINE
  5
321
100
AcDbEntity
  8
0
100
AcDbLine
 10
281.91605219
 20
-450.47114733
 30
0.0
 11
285.41989395
 21
-454.21554875
 31
0.0
  0
LINE
  5
322
100
AcDbEntity
  8
0
100
AcDbLine
 10
-83.54275782
 20
-454.21554875
 30
0.0
 11
-80.03891606
 21
-450.47114733
 31
0.0
  0
LINE
  5
323
100
AcDbEntity
  8
0
100
AcDbLine
 10
-80.03891577
 20
-264.10495764
 30
0.0
 11
-83.54275753
 21
-260.36058855
 31
0.0
  0
LINE
  5
324
100
AcDbEntity
  8
0
100
AcDbLine
 10
285.41989366
 20
-260.36058855
 30
0.0
 11
281.91605190
 21
-264.10495764
 31
0.0
  0
LINE
  5
325
100
AcDbEntity
  8
0
100
AcDbLine
 10
311.89823249
 20
-294.08936147
 30
0.0
 11
315.40207425
 21
-290.34499238
 31
0.0
  0
LINE
  5
326
100
AcDbEntity
  8
0
100
AcDbLine
 10
-113.52493812
 20
-290.34499238
 30
0.0
 11
-110.02109636
 21
-294.08936147
 31
0.0
  0
LINE
  5
327
100
AcDbEntity
  8
0
100
AcDbLine
 10
-110.02109636
 20
-420.48674348
 30
0.0
 11
-113.52493812
 21
-424.23114490
 31
0.0
  0
LINE
  5
328
100
AcDbEntity
  8
0
100
AcDbLine
 10
-124.06130986
 20
-249.84223365
 30
0.0
 11
-124.06130986
 21
-464.75946998
 31
0.0
  0
LINE
  5
329
100
AcDbEntity
  8
0
100
AcDbLine
 10
325.93844600
 20
-464.75946998
 30
0.0
 11
-124.06130986
 21
-464.75946998
 31
0.0
  0
LINE
  5
32A
100
AcDbEntity
  8
0
100
AcDbLine
 10
325.93844600
 20
-464.75946998
 30
0.0
 11
325.93844600
 21
-249.84223365
 31
0.0
  0
LINE
  5
32B
100
AcDbEntity
  8
0
100
AcDbLine
 10
-124.06130986
 20
-249.84223365
 30
0.0
 11
325.93844600
 21
-249.84223365
 31
0.0
  0
ENDBLK
  5
32C
100
AcDbEntity
  8
0
100
AcDbBlockEnd
  0
BLOCK
  5
32D
100
AcDbEntity
  8
0
100
AcDbBlockBegin
  2
FROM3D_00027
 70
    64
 10
0.0
 20
0.0
 30
0.0
  3
FROM3D_00027
  0
INSERT
  5
32E
100
AcDbEntity
  8
0
100
AcDbBlockReference
  2
FROM3D_00028
 10
-124.06143189
 20
-249.84223365
 30
0.0
  0
ENDBLK
  5
32F
100
AcDbEntity
  8
0
100
AcDbBlockEnd
  0
BLOCK
  5
330
100
AcDbEntity
  8
0
100
AcDbBlockBegin
  2
FROM3D_00028
 70
    64
 10
-124.06143189
 20
-249.84223365
 30
0.0
  3
FROM3D_00028
  0
POLYLINE
  5
331
100
AcDbEntity
  8
0
100
AcDb2dPolyline
 66
     1
  0
VERTEX
  5
332
100
AcDbEntity
  8
0
100
AcDbVertex
100
AcDb2dVertex
 10
-124.06143189
 20
-249.84223365
 30
0.0
  0
VERTEX
  5
333
100
AcDbEntity
  8
0
100
AcDbVertex
100
AcDb2dVertex
 10
-124.06143193
 20
-249.75946998
 30
0.0
  0
VERTEX
  5
334
100
AcDbEntity
  8
0
100
AcDbVertex
100
AcDb2dVertex
 10
325.93844600
 20
-249.75946998
 30
0.0
  0
SEQEND
  5
335
100
AcDbEntity
  8
0
  0
LINE
  5
336
100
AcDbEntity
  8
0
100
AcDbLine
 10
325.93844600
 20
-249.84223365
 30
0.0
 11
325.93844600
 21
-249.75946998
 31
0.0
  0
LINE
  5
337
100
AcDbEntity
  8
0
100
AcDbLine
 10
129.93856807
 20
-464.75946998
 30
0.0
 11
129.93858212
 21
-483.25932576
 31
0.0
  0
LINE
  5
338
100
AcDbEntity
  8
0
100
AcDbLine
 10
-0.06141788
 20
-483.25939957
 30
0.0
 11
129.93858212
 21
-483.25932576
 31
0.0
  0
LINE
  5
339
100
AcDbEntity
  8
0
100
AcDbLine
 10
-0.06143193
 20
-464.75946998
 30
0.0
 11
-0.06141788
 21
-483.25939957
 31
0.0
  0
ENDBLK
  5
33A
100
AcDbEntity
  8
0
100
AcDbBlockEnd
  0
BLOCK
  5
33B
100
AcDbEntity
  8
0
100
AcDbBlockBegin
  2
FROM3D_00029
 70
    64
 10
0.0
 20
0.0
 30
0.0
  3
FROM3D_00029
  0
INSERT
  5
33C
100
AcDbEntity
  8
0
100
AcDbBlockReference
  2
FROM3D_00030
 10
-87.55935674
 20
-352.28803498
 30
0.0
  0
ENDBLK
  5
33D
100
AcDbEntity
  8
0
100
AcDbBlockEnd
  0
BLOCK
  5
33E
100
AcDbEntity
  8
0
100
AcDbBlockBegin
  2
FROM3D_00030
 70
    64
 10
-87.55935674
 20
-352.28803498
 30
0.0
  3
FROM3D_00030
  0
LINE
  5
33F
100
AcDbEntity
  8
LE_ALL
100
AcDbLine
  6
PHANTOM
 10
-87.55935674
 20
-352.28803498
 30
0.0
 11
-87.55935674
 21
-362.28803498
 31
0.0
  0
LINE
  5
340
100
AcDbEntity
  8
LE_ALL
100
AcDbLine
  6
PHANTOM
 10
-101.55935674
 20
-352.28803498
 30
0.0
 11
-101.55935674
 21
-362.28803498
 31
0.0
  0
LINE
  5
341
100
AcDbEntity
  8
LE_ALL
100
AcDbLine
  6
PHANTOM
 10
289.43649287
 20
-352.28803498
 30
0.0
 11
289.43649287
 21
-362.28803498
 31
0.0
  0
LINE
  5
342
100
AcDbEntity
  8
LE_ALL
100
AcDbLine
  6
PHANTOM
 10
303.43649287
 20
-352.28803498
 30
0.0
 11
303.43649287
 21
-362.28803498
 31
0.0
  0
POLYLINE
  5
343
100
AcDbEntity
  8
LE_ALL
100
AcDb2dPolyline
  6
PHANTOM
 62
     1
 66
     1
  0
VERTEX
  5
344
100
AcDbEntity
  8
LE_ALL
100
AcDbVertex
100
AcDb2dVertex
 10
311.89823249
 20
-294.08936147
 30
0.0
  0
VERTEX
  5
345
100
AcDbEntity
  8
LE_ALL
100
AcDbVertex
100
AcDb2dVertex
 10
311.89823249
 20
-420.48674348
 30
0.0
  0
VERTEX
  5
346
100
AcDbEntity
  8
LE_ALL
100
AcDbVertex
100
AcDb2dVertex
 10
308.81823842
 20
-417.19528943
 30
0.0
  0
VERTEX
  5
347
100
AcDbEntity
  8
LE_ALL
100
AcDbVertex
100
AcDb2dVertex
 10
308.81823842
 20
-362.28803498
 30
0.0
  0
SEQEND
  5
348
100
AcDbEntity
  8
LE_ALL
  0
LINE
  5
349
100
AcDbEntity
  8
LE_ALL
100
AcDbLine
  6
PHANTOM
 62
     1
 10
308.87021108
 20
-352.28803498
 30
0.0
 11
308.87021108
 21
-362.28803498
 31
0.0
  0
POLYLINE
  5
34A
100
AcDbEntity
  8
LE_ALL
100
AcDb2dPolyline
  6
PHANTOM
 62
     1
 66
     1
  0
VERTEX
  5
34B
100
AcDbEntity
  8
LE_ALL
100
AcDbVertex
100
AcDb2dVertex
 10
308.81823842
 20
-352.28803498
 30
0.0
  0
VERTEX
  5
34C
100
AcDbEntity
  8
LE_ALL
100
AcDbVertex
100
AcDb2dVertex
 10
308.81823842
 20
-297.38078710
 30
0.0
  0
VERTEX
  5
34D
100
AcDbEntity
  8
LE_ALL
100
AcDbVertex
100
AcDb2dVertex
 10
311.89823249
 20
-294.08936147
 30
0.0
  0
SEQEND
  5
34E
100
AcDbEntity
  8
LE_ALL
  0
ELLIPSE
  5
34F
100
AcDbEntity
  8
LE_ALL
100
AcDbEllipse
  6
PHANTOM
 62
     1
 10
281.88255435
 20
-294.12286150
 30
0.0
 11
-20.52091253
 21
-21.92960637
 31
0.0
 40
0.99888216
 41
2.32358031
 42
3.89326064
  0
POLYLINE
  5
350
100
AcDbEntity
  8
LE_ALL
100
AcDb2dPolyline
  6
PHANTOM
 62
     1
 66
     1
  0
VERTEX
  5
351
100
AcDbEntity
  8
LE_ALL
100
AcDbVertex
100
AcDb2dVertex
 10
281.91605190
 20
-264.10495764
 30
0.0
  0
VERTEX
  5
352
100
AcDbEntity
  8
LE_ALL
100
AcDbVertex
100
AcDb2dVertex
 10
278.83390837
 20
-267.39868028
 30
0.0
  0
SEQEND
  5
353
100
AcDbEntity
  8
LE_ALL
  0
ELLIPSE
  5
354
100
AcDbEntity
  8
LE_ALL
100
AcDbEllipse
  6
PHANTOM
 62
     1
 10
278.83390837
 20
-297.38078710
 30
0.0
 11
21.90509263
 21
-20.49797348
 31
0.0
 40
0.99888216
 41
0.75278399
 42
2.32246431
  0
LINE
  5
355
100
AcDbEntity
  8
LE_ALL
100
AcDbLine
  6
PHANTOM
 62
     1
 10
300.18343882
 20
-297.38078710
 30
0.0
 11
308.81823842
 21
-297.38078710
 31
0.0
  0
LINE
  5
356
100
AcDbEntity
  8
LE_ALL
100
AcDbLine
  6
PHANTOM
 62
     1
 10
278.45622558
 20
-298.14128284
 30
0.0
 11
300.18343882
 21
-297.38078710
 31
0.0
  0
POLYLINE
  5
357
100
AcDbEntity
  8
LE_ALL
100
AcDb2dPolyline
  6
PHANTOM
 62
     1
 66
     1
  0
VERTEX
  5
358
100
AcDbEntity
  8
LE_ALL
100
AcDbVertex
100
AcDb2dVertex
 10
278.45622558
 20
-298.14128284
 30
0.0
  0
VERTEX
  5
359
100
AcDbEntity
  8
LE_ALL
100
AcDbVertex
100
AcDb2dVertex
 10
257.81651685
 20
-298.14128284
 30
0.0
  0
VERTEX
  5
35A
100
AcDbEntity
  8
LE_ALL
100
AcDbVertex
100
AcDb2dVertex
 10
257.81651685
 20
-352.28803498
 30
0.0
  0
SEQEND
  5
35B
100
AcDbEntity
  8
LE_ALL
  0
LINE
  5
35C
100
AcDbEntity
  8
LE_ALL
100
AcDbLine
  6
PHANTOM
 62
     1
 10
256.53272175
 20
-352.28803498
 30
0.0
 11
256.53272175
 21
-362.28803498
 31
0.0
  0
POLYLINE
  5
35D
100
AcDbEntity
  8
LE_ALL
100
AcDb2dPolyline
  6
PHANTOM
 62
     1
 66
     1
  0
VERTEX
  5
35E
100
AcDbEntity
  8
LE_ALL
100
AcDbVertex
100
AcDb2dVertex
 10
300.18343882
 20
-362.28803498
 30
0.0
  0
VERTEX
  5
35F
100
AcDbEntity
  8
LE_ALL
100
AcDbVertex
100
AcDb2dVertex
 10
300.18343882
 20
-417.19528943
 30
0.0
  0
SEQEND
  5
360
100
AcDbEntity
  8
LE_ALL
  0
ELLIPSE
  5
361
100
AcDbEntity
  8
LE_ALL
100
AcDbEllipse
  6
PHANTOM
 62
     1
 10
278.83390837
 20
-417.19528943
 30
0.0
 11
-1.04942616
 21
-29.98163946
 31
0.0
 40
0.71143595
 41
0.04915986
 42
1.59569307
  0
POLYLINE
  5
362
100
AcDbEntity
  8
LE_ALL
100
AcDb2dPolyline
  6
PHANTOM
 62
     1
 66
     1
  0
VERTEX
  5
363
100
AcDbEntity
  8
LE_ALL
100
AcDbVertex
100
AcDb2dVertex
 10
278.83390837
 20
-447.17739594
 30
0.0
  0
VERTEX
  5
364
100
AcDbEntity
  8
LE_ALL
100
AcDbVertex
100
AcDb2dVertex
 10
281.91605219
 20
-450.47114733
 30
0.0
  0
VERTEX
  5
365
100
AcDbEntity
  8
LE_ALL
100
AcDbVertex
100
AcDb2dVertex
 10
-80.03891606
 20
-450.47114733
 30
0.0
  0
SEQEND
  5
366
100
AcDbEntity
  8
LE_ALL
  0
ELLIPSE
  5
367
100
AcDbEntity
  8
LE_ALL
100
AcDbEllipse
  6
PHANTOM
 62
     1
 10
-80.00541822
 20
-420.45324316
 30
0.0
 11
-20.52081828
 21
-21.92969498
 31
0.0
 40
0.99888215
 41
5.46516866
 42
0.75166367
  0
POLYLINE
  5
368
100
AcDbEntity
  8
LE_ALL
100
AcDb2dPolyline
  6
PHANTOM
 62
     1
 66
     1
  0
VERTEX
  5
369
100
AcDbEntity
  8
LE_ALL
100
AcDbVertex
100
AcDb2dVertex
 10
-110.02109636
 20
-420.48674348
 30
0.0
  0
VERTEX
  5
36A
100
AcDbEntity
  8
LE_ALL
100
AcDbVertex
100
AcDb2dVertex
 10
-110.02109636
 20
-294.08936147
 30
0.0
  0
SEQEND
  5
36B
100
AcDbEntity
  8
LE_ALL
  0
ELLIPSE
  5
36C
100
AcDbEntity
  8
LE_ALL
100
AcDbEllipse
  6
PHANTOM
 62
     1
 10
-80.00541822
 20
-294.12286150
 30
0.0
 11
20.52091252
 21
-21.92960637
 31
0.0
 40
0.99888216
 41
2.38992467
 42
3.95960500
  0
LINE
  5
36D
100
AcDbEntity
  8
LE_ALL
100
AcDbLine
  6
PHANTOM
 62
     1
 10
-80.03891577
 20
-264.10495764
 30
0.0
 11
281.91605190
 21
-264.10495764
 31
0.0
  0
LINE
  5
36E
100
AcDbEntity
  8
LE_ALL
100
AcDbLine
  6
PHANTOM
 62
     1
 10
-76.95677224
 20
-267.39868028
 30
0.0
 11
-80.03891577
 21
-264.10495764
 31
0.0
  0
LINE
  5
36F
100
AcDbEntity
  8
LE_ALL
100
AcDbLine
  6
PHANTOM
 62
     1
 10
-55.22955899
 20
-268.15917603
 30
0.0
 11
-76.95677224
 21
-267.39868028
 31
0.0
  0
LINE
  5
370
100
AcDbEntity
  8
LE_ALL
100
AcDbLine
  6
PHANTOM
 62
     1
 10
100.93856807
 20
-268.28688886
 30
0.0
 11
-55.22955899
 21
-268.15917603
 31
0.0
  0
LINE
  5
371
100
AcDbEntity
  8
LE_ALL
100
AcDbLine
  6
PHANTOM
 62
     1
 10
257.10669513
 20
-268.15917603
 30
0.0
 11
100.93856807
 21
-268.28688886
 31
0.0
  0
LINE
  5
372
100
AcDbEntity
  8
LE_ALL
100
AcDbLine
  6
PHANTOM
 62
     1
 10
278.83390837
 20
-267.39868028
 30
0.0
 11
257.10669513
 21
-268.15917603
 31
0.0
  0
ELLIPSE
  5
373
100
AcDbEntity
  8
LE_ALL
100
AcDbEllipse
  6
PHANTOM
 62
     1
 10
278.83390837
 20
-297.38078710
 30
0.0
 11
1.04941711
 21
-29.98163978
 31
0.0
 40
0.71143596
 41
1.54589980
 42
3.09243322
  0
LINE
  5
374
100
AcDbEntity
  8
LE_ALL
100
AcDbLine
  6
PHANTOM
 62
     1
 10
300.18343882
 20
-297.38078710
 30
0.0
 11
300.18343882
 21
-352.28803498
 31
0.0
  0
POLYLINE
  5
375
100
AcDbEntity
  8
LE_ALL
100
AcDb2dPolyline
  6
PHANTOM
 62
     1
 66
     1
  0
VERTEX
  5
376
100
AcDbEntity
  8
LE_ALL
100
AcDbVertex
100
AcDb2dVertex
 10
278.45622558
 20
-352.28803498
 30
0.0
  0
VERTEX
  5
377
100
AcDbEntity
  8
LE_ALL
100
AcDbVertex
100
AcDb2dVertex
 10
278.45622558
 20
-298.14128284
 30
0.0
  0
SEQEND
  5
378
100
AcDbEntity
  8
LE_ALL
  0
ELLIPSE
  5
379
100
AcDbEntity
  8
LE_ALL
100
AcDbEllipse
  6
PHANTOM
 62
     1
 10
257.10669513
 20
-298.14128284
 30
0.0
 11
1.04941711
 21
-29.98163978
 31
0.0
 40
0.71143596
 41
1.54589980
 42
3.09243322
  0
ELLIPSE
  5
37A
100
AcDbEntity
  8
LE_ALL
100
AcDbEllipse
  6
PHANTOM
 62
     1
 10
257.10669513
 20
-298.14128284
 30
0.0
 11
0.02453371
 21
-29.99998997
 31
0.0
 40
0.02366072
 41
1.57077698
 42
3.10704318
  0
LINE
  5
37B
100
AcDbEntity
  8
LE_ALL
100
AcDbLine
  6
PHANTOM
 62
     1
 10
100.93856807
 20
-298.26957616
 30
0.0
 11
257.81651685
 21
-298.14128284
 31
0.0
  0
LINE
  5
37C
100
AcDbEntity
  8
LE_ALL
100
AcDbLine
  6
PHANTOM
 62
     1
 10
100.93856807
 20
-416.30649269
 30
0.0
 11
100.93856807
 21
-298.26957616
 31
0.0
  0
LINE
  5
37D
100
AcDbEntity
  8
LE_ALL
100
AcDbLine
  6
PHANTOM
 62
     1
 10
257.81651685
 20
-416.43478712
 30
0.0
 11
100.93856807
 21
-416.30649269
 31
0.0
  0
LINE
  5
37E
100
AcDbEntity
  8
LE_ALL
100
AcDbLine
  6
PHANTOM
 62
     1
 10
257.81651685
 20
-362.28803498
 30
0.0
 11
257.81651685
 21
-416.43478712
 31
0.0
  0
LINE
  5
37F
100
AcDbEntity
  8
LE_ALL
100
AcDbLine
  6
PHANTOM
 62
     1
 10
278.45622558
 20
-416.43478712
 30
0.0
 11
257.81651685
 21
-416.43478712
 31
0.0
  0
LINE
  5
380
100
AcDbEntity
  8
LE_ALL
100
AcDbLine
  6
PHANTOM
 62
     1
 10
300.18343882
 20
-417.19528943
 30
0.0
 11
278.45622558
 21
-416.43478712
 31
0.0
  0
LINE
  5
381
100
AcDbEntity
  8
LE_ALL
100
AcDbLine
  6
PHANTOM
 62
     1
 10
300.18343882
 20
-417.19528943
 30
0.0
 11
308.81823842
 21
-417.19528943
 31
0.0
  0
ELLIPSE
  5
382
100
AcDbEntity
  8
LE_ALL
100
AcDbEllipse
  6
PHANTOM
 62
     1
 10
278.83390837
 20
-417.19528943
 30
0.0
 11
21.90518093
 21
20.49787913
 31
0.0
 40
0.99888215
 41
3.96072531
 42
5.53040562
  0
LINE
  5
383
100
AcDbEntity
  8
LE_ALL
100
AcDbLine
  6
PHANTOM
 62
     1
 10
257.10669513
 20
-446.41689363
 30
0.0
 11
278.83390837
 21
-447.17739594
 31
0.0
  0
LINE
  5
384
100
AcDbEntity
  8
LE_ALL
100
AcDbLine
  6
PHANTOM
 62
     1
 10
100.93856807
 20
-446.28917969
 30
0.0
 11
257.10669513
 21
-446.41689363
 31
0.0
  0
LINE
  5
385
100
AcDbEntity
  8
LE_ALL
100
AcDbLine
  6
PHANTOM
 62
     1
 10
-55.22955899
 20
-446.41689363
 30
0.0
 11
100.93856807
 21
-446.28917969
 31
0.0
  0
LINE
  5
386
100
AcDbEntity
  8
LE_ALL
100
AcDbLine
  6
PHANTOM
 62
     1
 10
-76.95677224
 20
-447.17739594
 30
0.0
 11
-55.22955899
 21
-446.41689363
 31
0.0
  0
POLYLINE
  5
387
100
AcDbEntity
  8
LE_ALL
100
AcDb2dPolyline
  6
PHANTOM
 62
     1
 66
     1
  0
VERTEX
  5
388
100
AcDbEntity
  8
LE_ALL
100
AcDbVertex
100
AcDb2dVertex
 10
-80.03891606
 20
-450.47114733
 30
0.0
  0
VERTEX
  5
389
100
AcDbEntity
  8
LE_ALL
100
AcDbVertex
100
AcDb2dVertex
 10
-76.95677224
 20
-447.17739594
 30
0.0
  0
SEQEND
  5
38A
100
AcDbEntity
  8
LE_ALL
  0
ELLIPSE
  5
38B
100
AcDbEntity
  8
LE_ALL
100
AcDbEllipse
  6
PHANTOM
 62
     1
 10
-76.95677224
 20
-417.19528943
 30
0.0
 11
21.90518092
 21
-20.49787913
 31
0.0
 40
0.99888215
 41
3.89437234
 42
5.46405265
  0
LINE
  5
38C
100
AcDbEntity
  8
LE_ALL
100
AcDbLine
  6
PHANTOM
 62
     1
 10
-106.94110229
 20
-417.19528943
 30
0.0
 11
-110.02109636
 21
-420.48674348
 31
0.0
  0
LINE
  5
38D
100
AcDbEntity
  8
LE_ALL
100
AcDbLine
  6
PHANTOM
 62
     1
 10
-106.94110229
 20
-362.28803498
 30
0.0
 11
-106.94110229
 21
-417.19528943
 31
0.0
  0
LINE
  5
38E
100
AcDbEntity
  8
LE_ALL
100
AcDbLine
  6
PHANTOM
 62
     1
 10
-106.99307494
 20
-362.28803498
 30
0.0
 11
-106.99307494
 21
-352.28803498
 31
0.0
  0
LINE
  5
38F
100
AcDbEntity
  8
LE_ALL
100
AcDbLine
  6
PHANTOM
 62
     1
 10
-106.94110229
 20
-297.38078710
 30
0.0
 11
-106.94110229
 21
-352.28803498
 31
0.0
  0
LINE
  5
390
100
AcDbEntity
  8
LE_ALL
100
AcDbLine
  6
PHANTOM
 62
     1
 10
-110.02109636
 20
-294.08936147
 30
0.0
 11
-106.94110229
 21
-297.38078710
 31
0.0
  0
ELLIPSE
  5
391
100
AcDbEntity
  8
LE_ALL
100
AcDbEllipse
  6
PHANTOM
 62
     1
 10
-76.95677224
 20
-297.38078710
 30
0.0
 11
21.90509263
 21
20.49797348
 31
0.0
 40
0.99888216
 41
0.81912834
 42
2.38880867
  0
ELLIPSE
  5
392
100
AcDbEntity
  8
LE_ALL
100
AcDbEllipse
  6
PHANTOM
 62
     1
 10
-76.95677224
 20
-297.38078710
 30
0.0
 11
-1.04941711
 21
-29.98163978
 31
0.0
 40
0.71143596
 41
3.19075209
 42
4.73728551
  0
LINE
  5
393
100
AcDbEntity
  8
LE_ALL
100
AcDbLine
  6
PHANTOM
 62
     1
 10
-98.30630269
 20
-297.38078710
 30
0.0
 11
-76.57908945
 21
-298.14128284
 31
0.0
  0
ELLIPSE
  5
394
100
AcDbEntity
  8
LE_ALL
100
AcDbEllipse
  6
PHANTOM
 62
     1
 10
-55.22955899
 20
-298.14128284
 30
0.0
 11
-1.04941711
 21
-29.98163978
 31
0.0
 40
0.71143596
 41
3.19075209
 42
4.73728551
  0
ELLIPSE
  5
395
100
AcDbEntity
  8
LE_ALL
100
AcDbEllipse
  6
PHANTOM
 62
     1
 10
-55.22955899
 20
-298.14128284
 30
0.0
 11
-0.02453371
 21
-29.99998997
 31
0.0
 40
0.02366072
 41
3.17614213
 42
4.71240833
  0
LINE
  5
396
100
AcDbEntity
  8
LE_ALL
100
AcDbLine
  6
PHANTOM
 62
     1
 10
-55.93938072
 20
-298.14128284
 30
0.0
 11
100.93856807
 21
-298.26957616
 31
0.0
  0
LINE
  5
397
100
AcDbEntity
  8
LE_ALL
100
AcDbLine
  6
PHANTOM
 62
     1
 10
100.93856807
 20
-268.28688886
 30
0.0
 11
100.93856807
 21
-298.26957616
 31
0.0
  0
LINE
  5
398
100
AcDbEntity
  8
LE_ALL
100
AcDbLine
  6
PHANTOM
 62
     1
 10
-55.93938072
 20
-352.28803498
 30
0.0
 11
-55.93938072
 21
-298.14128284
 31
0.0
  0
LINE
  5
399
100
AcDbEntity
  8
LE_ALL
100
AcDbLine
  6
PHANTOM
 62
     1
 10
-54.65558562
 20
-362.28803498
 30
0.0
 11
-54.65558562
 21
-352.28803498
 31
0.0
  0
LINE
  5
39A
100
AcDbEntity
  8
LE_ALL
100
AcDbLine
  6
PHANTOM
 62
     1
 10
-55.93938072
 20
-416.43478712
 30
0.0
 11
-55.93938072
 21
-362.28803498
 31
0.0
  0
LINE
  5
39B
100
AcDbEntity
  8
LE_ALL
100
AcDbLine
  6
PHANTOM
 62
     1
 10
100.93856807
 20
-416.30649269
 30
0.0
 11
-55.93938072
 21
-416.43478712
 31
0.0
  0
LINE
  5
39C
100
AcDbEntity
  8
LE_ALL
100
AcDbLine
  6
PHANTOM
 62
     1
 10
100.93856807
 20
-446.28917969
 30
0.0
 11
100.93856807
 21
-416.30649269
 31
0.0
  0
LINE
  5
39D
100
AcDbEntity
  8
LE_ALL
100
AcDbLine
  6
PHANTOM
 62
     1
 10
-55.93938072
 20
-416.43478712
 30
0.0
 11
-76.57908945
 21
-416.43478712
 31
0.0
  0
LINE
  5
39E
100
AcDbEntity
  8
LE_ALL
100
AcDbLine
  6
PHANTOM
 62
     1
 10
-76.57908945
 20
-362.28803498
 30
0.0
 11
-76.57908945
 21
-416.43478712
 31
0.0
  0
LINE
  5
39F
100
AcDbEntity
  8
LE_ALL
100
AcDbLine
  6
PHANTOM
 62
     1
 10
-98.30630269
 20
-417.19528943
 30
0.0
 11
-98.30630269
 21
-362.28803498
 31
0.0
  0
LINE
  5
3A0
100
AcDbEntity
  8
LE_ALL
100
AcDbLine
  6
PHANTOM
 62
     1
 10
-76.57908945
 20
-416.43478712
 30
0.0
 11
-98.30630269
 21
-417.19528943
 31
0.0
  0
ELLIPSE
  5
3A1
100
AcDbEntity
  8
LE_ALL
100
AcDbEllipse
  6
PHANTOM
 62
     1
 10
-55.22955899
 20
-416.43478712
 30
0.0
 11
1.04942616
 21
-29.98163946
 31
0.0
 40
0.71143595
 41
4.68749224
 42
6.23402545
  0
ELLIPSE
  5
3A2
100
AcDbEntity
  8
LE_ALL
100
AcDbEllipse
  6
PHANTOM
 62
     1
 10
-55.22955899
 20
-416.43478712
 30
0.0
 11
0.02453392
 21
-29.99998997
 31
0.0
 40
0.02366072
 41
4.71236963
 42
6.24863554
  0
LINE
  5
3A3
100
AcDbEntity
  8
LE_ALL
100
AcDbLine
  6
PHANTOM
 62
     1
 10
-98.30630269
 20
-417.19528943
 30
0.0
 11
-106.94110229
 21
-417.19528943
 31
0.0
  0
ELLIPSE
  5
3A4
100
AcDbEntity
  8
LE_ALL
100
AcDbEllipse
  6
PHANTOM
 62
     1
 10
-76.95677224
 20
-417.19528943
 30
0.0
 11
1.04942616
 21
-29.98163946
 31
0.0
 40
0.71143595
 41
4.68749224
 42
6.23402545
  0
LINE
  5
3A5
100
AcDbEntity
  8
LE_ALL
100
AcDbLine
  6
PHANTOM
 62
     1
 10
-90.59816817
 20
-362.28803498
 30
0.0
 11
-54.65558562
 21
-362.28803498
 31
0.0
  0
LINE
  5
3A6
100
AcDbEntity
  8
LE_ALL
100
AcDbLine
  6
PHANTOM
 62
     1
 10
-90.59816817
 20
-352.28803498
 30
0.0
 11
-90.59816817
 21
-362.28803498
 31
0.0
  0
LINE
  5
3A7
100
AcDbEntity
  8
LE_ALL
100
AcDbLine
  6
PHANTOM
 62
     1
 10
-90.59816817
 20
-352.28803498
 30
0.0
 11
-54.65558562
 21
-352.28803498
 31
0.0
  0
LINE
  5
3A8
100
AcDbEntity
  8
LE_ALL
100
AcDbLine
  6
PHANTOM
 62
     1
 10
-109.71266749
 20
-352.28803498
 30
0.0
 11
-90.59816817
 21
-352.28803498
 31
0.0
  0
LINE
  5
3A9
100
AcDbEntity
  8
LE_ALL
100
AcDbLine
  6
PHANTOM
 10
-109.71266749
 20
-352.28803498
 30
0.0
 11
-109.71266749
 21
-362.28803498
 31
0.0
  0
LINE
  5
3AA
100
AcDbEntity
  8
LE_ALL
100
AcDbLine
  6
PHANTOM
 62
     1
 10
-90.59816817
 20
-362.28803498
 30
0.0
 11
-109.71266749
 21
-362.28803498
 31
0.0
  0
POLYLINE
  5
3AB
100
AcDbEntity
  8
LE_ALL
100
AcDb2dPolyline
  6
PHANTOM
 62
     1
 66
     1
  0
VERTEX
  5
3AC
100
AcDbEntity
  8
LE_ALL
100
AcDbVertex
100
AcDb2dVertex
 10
-98.30630269
 20
-352.28803498
 30
0.0
  0
VERTEX
  5
3AD
100
AcDbEntity
  8
LE_ALL
100
AcDbVertex
100
AcDb2dVertex
 10
-98.30630269
 20
-297.38078710
 30
0.0
  0
VERTEX
  5
3AE
100
AcDbEntity
  8
LE_ALL
100
AcDbVertex
100
AcDb2dVertex
 10
-106.94110229
 20
-297.38078710
 30
0.0
  0
SEQEND
  5
3AF
100
AcDbEntity
  8
LE_ALL
  0
LINE
  5
3B0
100
AcDbEntity
  8
LE_ALL
100
AcDbLine
  6
PHANTOM
 62
     1
 10
-76.57908945
 20
-298.14128284
 30
0.0
 11
-76.57908945
 21
-352.28803498
 31
0.0
  0
LINE
  5
3B1
100
AcDbEntity
  8
LE_ALL
100
AcDbLine
  6
PHANTOM
 62
     1
 10
-55.93938072
 20
-298.14128284
 30
0.0
 11
-76.57908945
 21
-298.14128284
 31
0.0
  0
ELLIPSE
  5
3B2
100
AcDbEntity
  8
LE_ALL
100
AcDbEllipse
  6
PHANTOM
 62
     1
 10
257.10669513
 20
-416.43478712
 30
0.0
 11
-1.04942616
 21
-29.98163946
 31
0.0
 40
0.71143595
 41
0.04915986
 42
1.59569307
  0
LINE
  5
3B3
100
AcDbEntity
  8
LE_ALL
100
AcDbLine
  6
PHANTOM
 62
     1
 10
278.45622558
 20
-416.43478712
 30
0.0
 11
278.45622558
 21
-362.28803498
 31
0.0
  0
ELLIPSE
  5
3B4
100
AcDbEntity
  8
LE_ALL
100
AcDbEllipse
  6
PHANTOM
 62
     1
 10
257.10669513
 20
-416.43478712
 30
0.0
 11
-0.02453392
 21
-29.99998997
 31
0.0
 40
0.02366072
 41
0.03454977
 42
1.57081568
  0
ELLIPSE
  5
3B5
100
AcDbEntity
  8
LE_ALL
100
AcDbEllipse
  6
PHANTOM
 62
     1
 10
281.88255435
 20
-420.45324316
 30
0.0
 11
20.52081828
 21
-21.92969499
 31
0.0
 40
0.99888215
 41
5.53152164
 42
0.81801664
  0
LINE
  5
3B6
100
AcDbEntity
  8
LE_ALL
100
AcDbLine
  6
PHANTOM
 62
     1
 10
292.47530430
 20
-362.28803498
 30
0.0
 11
256.53272175
 21
-362.28803498
 31
0.0
  0
LINE
  5
3B7
100
AcDbEntity
  8
LE_ALL
100
AcDbLine
  6
PHANTOM
 62
     1
 10
292.47530430
 20
-352.28803498
 30
0.0
 11
292.47530430
 21
-362.28803498
 31
0.0
  0
LINE
  5
3B8
100
AcDbEntity
  8
LE_ALL
100
AcDbLine
  6
PHANTOM
 62
     1
 10
292.47530430
 20
-352.28803498
 30
0.0
 11
256.53272175
 21
-352.28803498
 31
0.0
  0
LINE
  5
3B9
100
AcDbEntity
  8
LE_ALL
100
AcDbLine
  6
PHANTOM
 62
     1
 10
311.58980362
 20
-352.28803498
 30
0.0
 11
292.47530430
 21
-352.28803498
 31
0.0
  0
LINE
  5
3BA
100
AcDbEntity
  8
LE_ALL
100
AcDbLine
  6
PHANTOM
 10
311.58980362
 20
-352.28803498
 30
0.0
 11
311.58980362
 21
-362.28803498
 31
0.0
  0
LINE
  5
3BB
100
AcDbEntity
  8
LE_ALL
100
AcDbLine
  6
PHANTOM
 62
     1
 10
292.47530430
 20
-362.28803498
 30
0.0
 11
311.58980362
 21
-362.28803498
 31
0.0
  0
ENDBLK
  5
3BC
100
AcDbEntity
  8
0
100
AcDbBlockEnd
  0
BLOCK
  5
3BD
100
AcDbEntity
  8
0
100
AcDbBlockBegin
  2
ANS3D05_00031
 70
    64
 10
0.0
 20
0.0
 30
0.0
  3
ANS3D05_00031
  0
INSERT
  5
3BE
100
AcDbEntity
  8
0
100
AcDbBlockReference
  2
FIG3D05_00032
 10
0.0
 20
0.0
 30
0.0
  0
ENDBLK
  5
3BF
100
AcDbEntity
  8
0
100
AcDbBlockEnd
  0
BLOCK
  5
3C0
100
AcDbEntity
  8
0
100
AcDbBlockBegin
  2
FIG3D05_00032
 70
    64
 10
0.0
 20
0.0
 30
0.0
  3
FIG3D05_00032
  0
INSERT
  5
3C1
100
AcDbEntity
  8
0
100
AcDbBlockReference
  2
FROM3D_00033
 10
0.0
 20
0.0
 30
0.0
  0
ENDBLK
  5
3C2
100
AcDbEntity
  8
0
100
AcDbBlockEnd
  0
BLOCK
  5
3C3
100
AcDbEntity
  8
0
100
AcDbBlockBegin
  2
FROM3D_00033
 70
    64
 10
0.0
 20
0.0
 30
0.0
  3
FROM3D_00033
  0
INSERT
  5
3C4
100
AcDbEntity
  8
0
100
AcDbBlockReference
  2
FROM3D_00034
 10
0.0
 20
0.0
 30
0.0
  0
INSERT
  5
3C5
100
AcDbEntity
  8
0
100
AcDbBlockReference
  2
FROM3D_00039
 10
0.0
 20
0.0
 30
0.0
  0
ENDBLK
  5
3C6
100
AcDbEntity
  8
0
100
AcDbBlockEnd
  0
BLOCK
  5
3C7
100
AcDbEntity
  8
0
100
AcDbBlockBegin
  2
FROM3D_00034
 70
    64
 10
0.0
 20
0.0
 30
0.0
  3
FROM3D_00034
  0
INSERT
  5
3C8
100
AcDbEntity
  8
0
100
AcDbBlockReference
  2
FROM3D_00035
 10
0.0
 20
0.0
 30
0.0
  0
INSERT
  5
3C9
100
AcDbEntity
  8
0
100
AcDbBlockReference
  2
FROM3D_00037
 10
0.0
 20
0.0
 30
0.0
  0
ENDBLK
  5
3CA
100
AcDbEntity
  8
0
100
AcDbBlockEnd
  0
BLOCK
  5
3CB
100
AcDbEntity
  8
0
100
AcDbBlockBegin
  2
FROM3D_00035
 70
    64
 10
0.0
 20
0.0
 30
0.0
  3
FROM3D_00035
  0
INSERT
  5
3CC
100
AcDbEntity
  8
0
100
AcDbBlockReference
  2
FROM3D_00036
 10
514.39418428
 20
-293.56070343
 30
0.0
  0
ENDBLK
  5
3CD
100
AcDbEntity
  8
0
100
AcDbBlockEnd
  0
BLOCK
  5
3CE
100
AcDbEntity
  8
0
100
AcDbBlockBegin
  2
FROM3D_00036
 70
    64
 10
514.39418428
 20
-293.56070343
 30
0.0
  3
FROM3D_00036
  0
ELLIPSE
  5
3CF
100
AcDbEntity
  8
0
100
AcDbEllipse
 10
509.76411949
 20
-288.31070343
 30
0.0
 11
4.63006479
 21
-5.25000000
 31
0.0
 40
0.88191710
 41
3.14159265
 42
0.0
  0
ELLIPSE
  5
3D0
100
AcDbEntity
  8
0
100
AcDbEllipse
 10
509.76411949
 20
-288.31070343
 30
0.0
 11
4.63006479
 21
-5.25000000
 31
0.0
 40
0.88191710
 41
0.00000000
 42
3.14159265
  0
ELLIPSE
  5
3D1
100
AcDbEntity
  8
0
100
AcDbEllipse
 10
513.29965339
 20
-285.19265561
 30
0.0
 11
4.63006479
 21
-5.25000000
 31
0.0
 40
0.88191710
 41
3.53333762
 42
5.89144034
  0
ELLIPSE
  5
3D2
100
AcDbEntity
  8
0
100
AcDbEllipse
 10
875.50724671
 20
-334.39000621
 30
0.0
 11
4.63006479
 21
-5.25000000
 31
0.0
 40
0.88191710
 41
3.14159265
 42
0.00000000
  0
ELLIPSE
  5
3D3
100
AcDbEntity
  8
0
100
AcDbEllipse
 10
875.50724671
 20
-334.39000621
 30
0.0
 11
4.63006479
 21
-5.25000000
 31
0.0
 40
0.88191710
 41
6.28318531
 42
3.14159265
  0
ELLIPSE
  5
3D4
100
AcDbEntity
  8
0
100
AcDbEllipse
 10
879.04278061
 20
-331.27195839
 30
0.0
 11
4.63006479
 21
-5.25000000
 31
0.0
 40
0.88191710
 41
3.53333762
 42
5.89144034
  0
ELLIPSE
  5
3D5
100
AcDbEntity
  8
0
100
AcDbEllipse
 10
843.28247528
 20
-580.32131086
 30
0.0
 11
30.00487512
 21
-0.00887476
 31
0.0
 40
0.33359791
 41
4.35207265
 42
5.92175296
  0
LINE
  5
3D6
100
AcDbEntity
  8
0
100
AcDbLine
 10
487.56791999
 20
-546.20231917
 30
0.0
 11
832.70087784
 21
-589.68498469
 31
0.0
  0
ELLIPSE
  5
3D7
100
AcDbEntity
  8
0
100
AcDbEllipse
 10
498.21218614
 20
-536.84654086
 30
0.0
 11
30.02703326
 21
0.00996866
 31
0.0
 40
0.33310573
 41
3.12659055
 42
4.34991040
  0
ELLIPSE
  5
3D8
100
AcDbEntity
  8
0
100
AcDbEllipse
 10
890.59469026
 20
-538.59585925
 30
0.0
 11
30.02703313
 21
0.00996850
 31
0.0
 40
0.33310573
 41
5.92182275
 42
0.01500207
  0
LINE
  5
3D9
100
AcDbEntity
  8
0
100
AcDbLine
 10
871.34772709
 20
-583.86913801
 30
0.0
 11
918.68363027
 21
-542.12279538
 31
0.0
  0
LINE
  5
3DA
100
AcDbEntity
  8
0
100
AcDbLine
 10
871.34772709
 20
-583.86913801
 30
0.0
 11
867.67666316
 21
-388.92454018
 31
0.0
  0
ELLIPSE
  5
3DB
100
AcDbEntity
  8
0
100
AcDbEllipse
 10
839.62889065
 20
-386.30491664
 30
0.0
 11
29.99468214
 21
0.56483943
 31
0.0
 40
0.29175524
 41
4.34569194
 42
5.91537225
  0
LINE
  5
3DC
100
AcDbEntity
  8
0
100
AcDbLine
 10
829.02861524
 20
-394.67673370
 30
0.0
 11
832.70087784
 21
-589.68498469
 31
0.0
  0
LINE
  5
3DD
100
AcDbEntity
  8
0
100
AcDbLine
 10
808.97354642
 20
-371.12855516
 30
0.0
 11
829.02861524
 21
-394.67673370
 31
0.0
  0
LINE
  5
3DE
100
AcDbEntity
  8
0
100
AcDbLine
 10
662.93679357
 20
-349.19944005
 30
0.0
 11
808.97354642
 21
-371.12855516
 31
0.0
  0
LINE
  5
3DF
100
AcDbEntity
  8
0
100
AcDbLine
 10
516.80973333
 20
-334.31937461
 30
0.0
 11
662.93679357
 21
-349.19944005
 31
0.0
  0
LINE
  5
3E0
100
AcDbEntity
  8
0
100
AcDbLine
 10
496.21690817
 20
-352.74639988
 30
0.0
 11
516.80973333
 21
-334.31937461
 31
0.0
  0
POLYLINE
  5
3E1
100
AcDbEntity
  8
0
100
AcDb2dPolyline
 66
     1
  0
VERTEX
  5
3E2
100
AcDbEntity
  8
0
100
AcDbVertex
100
AcDb2dVertex
 10
487.56791999
 20
-546.20231917
 30
0.0
  0
VERTEX
  5
3E3
100
AcDbEntity
  8
0
100
AcDbVertex
100
AcDb2dVertex
 10
496.21690817
 20
-352.74639988
 30
0.0
  0
SEQEND
  5
3E4
100
AcDbEntity
  8
0
  0
ELLIPSE
  5
3E5
100
AcDbEntity
  8
0
100
AcDbEllipse
 10
506.81718359
 20
-344.37458281
 30
0.0
 11
20.00497080
 21
-22.35623276
 31
0.0
 40
0.44957224
 41
3.14159265
 42
4.68472333
  0
LINE
  5
3E6
100
AcDbEntity
  8
0
100
AcDbLine
 10
507.40503794
 20
-303.59132479
 30
0.0
 11
486.81221278
 21
-322.01835006
 31
0.0
  0
ELLIPSE
  5
3E7
100
AcDbEntity
  8
0
100
AcDbEllipse
 10
527.41000874
 20
-325.94755755
 30
0.0
 11
20.00497080
 21
-22.35623276
 31
0.0
 40
0.44957224
 41
3.14159265
 42
4.68472333
  0
ELLIPSE
  5
3E8
100
AcDbEntity
  8
0
100
AcDbEllipse
 10
527.41000874
 20
-325.94755755
 30
0.0
 11
-3.03917273
 21
-29.84566014
 31
0.0
 40
0.34040578
 41
3.49491599
 42
5.03118190
  0
POLYLINE
  5
3E9
100
AcDbEntity
  8
0
100
AcDb2dPolyline
 66
     1
  0
VERTEX
  5
3EA
100
AcDbEntity
  8
0
100
AcDbVertex
100
AcDb2dVertex
 10
526.74603132
 20
-297.58755130
 30
0.0
  0
VERTEX
  5
3EB
100
AcDbEntity
  8
0
100
AcDbVertex
100
AcDb2dVertex
 10
545.88979913
 20
-280.70433505
 30
0.0
  0
VERTEX
  5
3EC
100
AcDbEntity
  8
0
100
AcDbVertex
100
AcDb2dVertex
 10
547.09067948
 20
-280.82698541
 30
0.0
  0
VERTEX
  5
3ED
100
AcDbEntity
  8
0
100
AcDbVertex
100
AcDb2dVertex
 10
550.62621338
 20
-277.70893759
 30
0.0
  0
SEQEND
  5
3EE
100
AcDbEntity
  8
0
  0
LINE
  5
3EF
100
AcDbEntity
  8
0
100
AcDbLine
 10
549.38994343
 20
-266.56307721
 30
0.0
 11
539.19517509
 21
-275.55401777
 31
0.0
  0
ELLIPSE
  5
3F0
100
AcDbEntity
  8
0
100
AcDbEllipse
 10
569.23307826
 20
-289.06307721
 30
0.0
 11
19.84313483
 21
-22.50000000
 31
0.0
 40
0.88191710
 41
2.37985742
 42
3.14159265
  0
ELLIPSE
  5
3F1
100
AcDbEntity
  8
0
100
AcDbEllipse
 10
569.23307826
 20
-289.06307721
 30
0.0
 11
-3.05714089
 21
-29.84382498
 31
0.0
 40
0.34184783
 41
3.14159265
 42
3.49512137
  0
LINE
  5
3F2
100
AcDbEntity
  8
0
100
AcDbLine
 10
572.29021915
 20
-259.21925222
 30
0.0
 11
718.94175649
 21
-274.24193819
 31
0.0
  0
ELLIPSE
  5
3F3
100
AcDbEntity
  8
0
100
AcDbEllipse
 10
715.26983150
 20
-304.02278594
 30
0.0
 11
-3.74866840
 21
-29.77208686
 31
0.0
 40
0.33326768
 41
3.13386923
 42
3.14931608
  0
POLYLINE
  5
3F4
100
AcDbEntity
  8
0
100
AcDb2dPolyline
 66
     1
  0
VERTEX
  5
3F5
100
AcDbEntity
  8
0
100
AcDbVertex
100
AcDb2dVertex
 10
719.09501970
 20
-274.26123590
 30
0.0
  0
VERTEX
  5
3F6
100
AcDbEntity
  8
0
100
AcDbVertex
100
AcDb2dVertex
 10
865.83328615
 20
-296.20209764
 30
0.0
  0
SEQEND
  5
3F7
100
AcDbEntity
  8
0
  0
ELLIPSE
  5
3F8
100
AcDbEntity
  8
0
100
AcDbEllipse
 10
861.39689136
 20
-325.87225776
 30
0.0
 11
-4.43639479
 21
-29.67016012
 31
0.0
 40
0.32463198
 41
3.14159265
 42
3.51056821
  0
LINE
  5
3F9
100
AcDbEntity
  8
0
100
AcDbLine
 10
862.06086878
 20
-297.67955810
 30
0.0
 11
843.02682774
 21
-314.46600444
 31
0.0
  0
LINE
  5
3FA
100
AcDbEntity
  8
0
100
AcDbLine
 10
841.71622062
 20
-314.38283132
 30
0.0
 11
838.18068672
 21
-317.50087914
 31
0.0
  0
LINE
  5
3FB
100
AcDbEntity
  8
0
100
AcDbLine
 10
871.80189409
 20
-319.63453215
 30
0.0
 11
838.18068672
 21
-317.50087914
 31
0.0
  0
ELLIPSE
  5
3FC
100
AcDbEntity
  8
0
100
AcDbEllipse
 10
872.84442169
 20
-336.70387044
 30
0.0
 11
11.90587457
 21
-13.49999283
 31
0.0
 40
0.88191710
 41
0.71054034
 42
2.41815131
  0
LINE
  5
3FD
100
AcDbEntity
  8
0
100
AcDbLine
 10
887.13792510
 20
-373.32576605
 30
0.0
 11
889.63471706
 21
-340.08844132
 31
0.0
  0
LINE
  5
3FE
100
AcDbEntity
  8
0
100
AcDbLine
 10
887.08930913
 20
-371.80419567
 30
0.0
 11
887.13792510
 21
-373.32576605
 31
0.0
  0
ELLIPSE
  5
3FF
100
AcDbEntity
  8
0
100
AcDbEllipse
 10
859.04153663
 20
-369.18457212
 30
0.0
 11
19.84313483
 21
-22.50000000
 31
0.0
 40
0.88191710
 41
0.81772082
 42
1.56434898
  0
POLYLINE
  5
400
100
AcDbEntity
  8
0
100
AcDb2dPolyline
 66
     1
  0
VERTEX
  5
401
100
AcDbEntity
  8
0
100
AcDbVertex
100
AcDb2dVertex
 10
879.01219371
 20
-351.83000012
 30
0.0
  0
VERTEX
  5
402
100
AcDbEntity
  8
0
100
AcDbVertex
100
AcDb2dVertex
 10
859.59954773
 20
-368.95034464
 30
0.0
  0
SEQEND
  5
403
100
AcDbEntity
  8
0
  0
ELLIPSE
  5
404
100
AcDbEntity
  8
0
100
AcDbEllipse
 10
839.62889065
 20
-386.30491664
 30
0.0
 11
22.83944684
 21
19.45146956
 31
0.0
 40
0.01864166
 41
0.49096447
 42
2.03749768
  0
LINE
  5
405
100
AcDbEntity
  8
0
100
AcDbLine
 10
859.59954773
 20
-368.95034464
 30
0.0
 11
839.54447892
 21
-345.40216610
 31
0.0
  0
ELLIPSE
  5
406
100
AcDbEntity
  8
0
100
AcDbEllipse
 10
819.57382184
 20
-362.75673810
 30
0.0
 11
22.83944684
 21
19.45146956
 31
0.0
 40
0.01864166
 41
0.49096447
 42
2.03749768
  0
ELLIPSE
  5
407
100
AcDbEntity
  8
0
100
AcDbEllipse
 10
819.57382184
 20
-362.75673810
 30
0.0
 11
-4.45490281
 21
-29.66738682
 31
0.0
 40
0.32607403
 41
3.51077118
 42
5.04703708
  0
POLYLINE
  5
408
100
AcDbEntity
  8
0
100
AcDb2dPolyline
 66
     1
  0
VERTEX
  5
409
100
AcDbEntity
  8
0
100
AcDbVertex
100
AcDb2dVertex
 10
820.23779926
 20
-334.56403844
 30
0.0
  0
VERTEX
  5
40A
100
AcDbEntity
  8
0
100
AcDbVertex
100
AcDb2dVertex
 10
673.53727422
 20
-312.53525023
 30
0.0
  0
VERTEX
  5
40B
100
AcDbEntity
  8
0
100
AcDbVertex
100
AcDb2dVertex
 10
715.26962627
 20
-275.73077517
 30
0.0
  0
VERTEX
  5
40C
100
AcDbEntity
  8
0
100
AcDbVertex
100
AcDb2dVertex
 10
862.06086878
 20
-297.67955810
 30
0.0
  0
SEQEND
  5
40D
100
AcDbEntity
  8
0
  0
ELLIPSE
  5
40E
100
AcDbEntity
  8
0
100
AcDbEllipse
 10
861.39689136
 20
-325.87225776
 30
0.0
 11
19.84313483
 21
-22.50000000
 31
0.0
 40
0.88191710
 41
1.56434898
 42
2.33253156
  0
LINE
  5
40F
100
AcDbEntity
  8
0
100
AcDbLine
 10
872.50181045
 20
-316.33653172
 30
0.0
 11
881.36754844
 21
-308.51768576
 31
0.0
  0
LINE
  5
410
100
AcDbEntity
  8
0
100
AcDbLine
 10
901.96037127
 20
-331.59160983
 30
0.0
 11
892.97931326
 21
-339.51215850
 31
0.0
  0
LINE
  5
411
100
AcDbEntity
  8
0
100
AcDbLine
 10
881.36754844
 20
-308.51768576
 30
0.0
 11
901.96037127
 21
-331.59160983
 31
0.0
  0
ELLIPSE
  5
412
100
AcDbEntity
  8
0
100
AcDbEllipse
 10
861.39689136
 20
-325.87225776
 30
0.0
 11
22.38241603
 21
19.97567152
 31
0.0
 40
0.02471821
 41
5.79215037
 42
0.00000000
  0
POLYLINE
  5
413
100
AcDbEntity
  8
0
100
AcDb2dPolyline
 66
     1
  0
VERTEX
  5
414
100
AcDbEntity
  8
0
100
AcDbVertex
100
AcDb2dVertex
 10
883.77930739
 20
-305.89658624
 30
0.0
  0
VERTEX
  5
415
100
AcDbEntity
  8
0
100
AcDbVertex
100
AcDb2dVertex
 10
904.37213022
 20
-328.97051032
 30
0.0
  0
SEQEND
  5
416
100
AcDbEntity
  8
0
  0
ELLIPSE
  5
417
100
AcDbEntity
  8
0
100
AcDbEllipse
 10
881.98971419
 20
-348.94618183
 30
0.0
 11
22.38241603
 21
19.97567152
 31
0.0
 40
0.02471821
 41
5.79215037
 42
6.28318531
  0
ELLIPSE
  5
418
100
AcDbEntity
  8
0
100
AcDbEllipse
 10
881.98971419
 20
-348.94618183
 30
0.0
 11
19.84313483
 21
-22.50000000
 31
0.0
 40
0.88191710
 41
0.81772082
 42
1.56434898
  0
LINE
  5
419
100
AcDbEntity
  8
0
100
AcDbLine
 10
910.03748670
 20
-351.56580538
 30
0.0
 11
918.68363027
 21
-542.12279538
 31
0.0
  0
LINE
  5
41A
100
AcDbEntity
  8
0
100
AcDbLine
 10
890.79931851
 20
-368.53227494
 30
0.0
 11
910.03748670
 21
-351.56580538
 31
0.0
  0
LINE
  5
41B
100
AcDbEntity
  8
0
100
AcDbLine
 10
890.67345901
 20
-370.20771823
 30
0.0
 11
887.13792510
 21
-373.32576605
 31
0.0
  0
LINE
  5
41C
100
AcDbEntity
  8
0
100
AcDbLine
 10
890.67345901
 20
-370.20771823
 30
0.0
 11
893.17023767
 21
-336.97057046
 31
0.0
  0
POLYLINE
  5
41D
100
AcDbEntity
  8
0
100
AcDb2dPolyline
 66
     1
  0
VERTEX
  5
41E
100
AcDbEntity
  8
0
100
AcDbVertex
100
AcDb2dVertex
 10
889.63471706
 20
-340.08844132
 30
0.0
  0
VERTEX
  5
41F
100
AcDbEntity
  8
0
100
AcDbVertex
100
AcDb2dVertex
 10
893.17023767
 20
-336.97057046
 30
0.0
  0
SEQEND
  5
420
100
AcDbEntity
  8
0
  0
ELLIPSE
  5
421
100
AcDbEntity
  8
0
100
AcDbEllipse
 10
876.37995559
 20
-333.58582262
 30
0.0
 11
11.90587457
 21
-13.49999283
 31
0.0
 40
0.88191710
 41
0.71052979
 42
2.41815131
  0
LINE
  5
422
100
AcDbEntity
  8
0
100
AcDbLine
 10
875.33742799
 20
-316.51648433
 30
0.0
 11
871.80189409
 21
-319.63453215
 31
0.0
  0
LINE
  5
423
100
AcDbEntity
  8
0
100
AcDbLine
 10
875.33742799
 20
-316.51648433
 30
0.0
 11
841.71622062
 21
-314.38283132
 31
0.0
  0
ELLIPSE
  5
424
100
AcDbEntity
  8
0
100
AcDbEllipse
 10
881.98971419
 20
-348.94618183
 30
0.0
 11
29.96916695
 21
1.35979121
 31
0.0
 40
0.35263409
 41
5.90682068
 42
0.00000000
  0
POLYLINE
  5
425
100
AcDbEntity
  8
0
100
AcDb2dPolyline
 66
     1
  0
VERTEX
  5
426
100
AcDbEntity
  8
0
100
AcDbVertex
100
AcDb2dVertex
 10
904.37213022
 20
-328.97051032
 30
0.0
 42
-0.172505808
  0
VERTEX
  5
427
100
AcDbEntity
  8
0
100
AcDbVertex
100
AcDb2dVertex
 10
911.95888114
 20
-347.58639062
 30
0.0
  0
VERTEX
  5
428
100
AcDbEntity
  8
0
100
AcDbVertex
100
AcDb2dVertex
 10
920.61829466
 20
-538.43584414
 30
0.0
  0
SEQEND
  5
429
100
AcDbEntity
  8
0
  0
ARC
  5
42A
100
AcDbEntity
  8
0
100
AcDbCircle
 10
861.39689136
 20
-325.87225776
 30
0.0
 40
30.00000000
100
AcDbArc
 50
41.748007213
 51
81.495920673
  0
ELLIPSE
  5
42B
100
AcDbEntity
  8
0
100
AcDbEllipse
 10
715.26983150
 20
-304.02278594
 30
0.0
 11
-3.74866840
 21
-29.77208686
 31
0.0
 40
0.33326768
 41
3.14931608
 42
3.50284479
  0
LINE
  5
42C
100
AcDbEntity
  8
0
100
AcDbLine
 10
568.56910084
 20
-260.70307096
 30
0.0
 11
715.26962627
 21
-275.73077517
 31
0.0
  0
LINE
  5
42D
100
AcDbEntity
  8
0
100
AcDbLine
 10
549.52224097
 20
-277.50082246
 30
0.0
 11
568.56910084
 21
-260.70307096
 31
0.0
  0
POLYLINE
  5
42E
100
AcDbEntity
  8
0
100
AcDb2dPolyline
 66
     1
  0
VERTEX
  5
42F
100
AcDbEntity
  8
0
100
AcDbVertex
100
AcDb2dVertex
 10
673.53727422
 20
-312.53525023
 30
0.0
  0
VERTEX
  5
430
100
AcDbEntity
  8
0
100
AcDbVertex
100
AcDb2dVertex
 10
526.74603132
 20
-297.58755130
 30
0.0
  0
SEQEND
  5
431
100
AcDbEntity
  8
0
  0
ELLIPSE
  5
432
100
AcDbEntity
  8
0
100
AcDbEllipse
 10
527.41000874
 20
-325.94755755
 30
0.0
 11
19.84313483
 21
-22.50000000
 31
0.0
 40
0.88191710
 41
2.37985742
 42
3.14159265
  0
LINE
  5
433
100
AcDbEntity
  8
0
100
AcDbLine
 10
526.71064172
 20
-286.56434129
 30
0.0
 11
507.56687391
 21
-303.44755755
 31
0.0
  0
LINE
  5
434
100
AcDbEntity
  8
0
100
AcDbLine
 10
497.27389604
 20
-312.65694868
 30
0.0
 11
495.63664913
 21
-290.44935062
 31
0.0
  0
ELLIPSE
  5
435
100
AcDbEntity
  8
0
100
AcDbEllipse
 10
512.42694451
 20
-291.29553650
 30
0.0
 11
11.90587457
 21
-13.49999283
 31
0.0
 40
0.88191710
 41
3.14159265
 42
4.00184864
  0
ELLIPSE
  5
436
100
AcDbEntity
  8
0
100
AcDbEllipse
 10
512.42694451
 20
-291.29553650
 30
0.0
 11
11.90587457
 21
-13.49999283
 31
0.0
 40
0.88191710
 41
2.29423767
 42
3.14159265
  0
LINE
  5
437
100
AcDbEntity
  8
0
100
AcDbLine
 10
517.00500601
 20
-271.37084265
 30
0.0
 11
513.46947210
 21
-274.48889047
 31
0.0
  0
LINE
  5
438
100
AcDbEntity
  8
0
100
AcDbLine
 10
517.00500601
 20
-271.37084265
 30
0.0
 11
550.62621338
 21
-277.70893759
 31
0.0
  0
ELLIPSE
  5
439
100
AcDbEntity
  8
0
100
AcDbEllipse
 10
515.96247841
 20
-288.17748867
 30
0.0
 11
11.90587457
 21
-13.49999283
 31
0.0
 40
0.88191710
 41
2.29423767
 42
3.14159265
  0
LINE
  5
43A
100
AcDbEntity
  8
0
100
AcDbLine
 10
504.05660384
 20
-274.67749585
 30
0.0
 11
500.52106993
 21
-277.79554367
 31
0.0
  0
LINE
  5
43B
100
AcDbEntity
  8
0
100
AcDbLine
 10
513.46947210
 20
-274.48889047
 30
0.0
 11
547.09067948
 21
-280.82698541
 31
0.0
  0
ELLIPSE
  5
43C
100
AcDbEntity
  8
0
100
AcDbEllipse
 10
546.55377655
 20
-309.06434129
 30
0.0
 11
19.84313483
 21
-22.50000000
 31
0.0
 40
0.88191710
 41
2.37985742
 42
3.14159265
  0
ARC
  5
43D
100
AcDbEntity
  8
0
100
AcDbCircle
 10
527.41000874
 20
-325.94755755
 30
0.0
 40
30.00000000
100
AcDbArc
 50
131.409622109
 51
131.823053076
  0
ELLIPSE
  5
43E
100
AcDbEntity
  8
0
100
AcDbEllipse
 10
673.53706898
 20
-340.82762299
 30
0.0
 11
-3.74904039
 21
-29.77242700
 31
0.0
 40
0.33325915
 41
3.50284358
 42
5.03910949
  0
LINE
  5
43F
100
AcDbEntity
  8
0
100
AcDbLine
 10
839.38156707
 20
-317.68082218
 30
0.0
 11
820.23779926
 21
-334.56403844
 31
0.0
  0
POLYLINE
  5
440
100
AcDbEntity
  8
0
100
AcDb2dPolyline
 66
     1
  0
VERTEX
  5
441
100
AcDbEntity
  8
0
100
AcDbVertex
100
AcDb2dVertex
 10
838.18068672
 20
-317.50087914
 30
0.0
  0
VERTEX
  5
442
100
AcDbEntity
  8
0
100
AcDbVertex
100
AcDb2dVertex
 10
839.38156707
 20
-317.68082218
 30
0.0
  0
SEQEND
  5
443
100
AcDbEntity
  8
0
  0
ELLIPSE
  5
444
100
AcDbEntity
  8
0
100
AcDbEllipse
 10
838.71758965
 20
-345.87352184
 30
0.0
 11
19.84313483
 21
-22.50000000
 31
0.0
 40
0.88191710
 41
1.56434898
 42
2.33253156
  0
LINE
  5
445
100
AcDbEntity
  8
0
100
AcDbLine
 10
858.68824673
 20
-328.51894984
 30
0.0
 11
879.01219371
 21
-351.83000012
 31
0.0
  0
LINE
  5
446
100
AcDbEntity
  8
0
100
AcDbLine
 10
839.54447892
 20
-345.40216610
 30
0.0
 11
858.68824673
 21
-328.51894984
 31
0.0
  0
ELLIPSE
  5
447
100
AcDbEntity
  8
0
100
AcDbEllipse
 10
819.57382184
 20
-362.75673810
 30
0.0
 11
19.84313483
 21
-22.50000000
 31
0.0
 40
0.88191710
 41
1.56434898
 42
2.33253156
  0
ELLIPSE
  5
448
100
AcDbEntity
  8
0
100
AcDbEllipse
 10
839.62889065
 20
-386.30491664
 30
0.0
 11
19.84313483
 21
-22.50000000
 31
0.0
 40
0.88191710
 41
0.81772082
 42
1.56434898
  0
LINE
  5
449
100
AcDbEntity
  8
0
100
AcDbLine
 10
867.67666316
 20
-388.92454018
 30
0.0
 11
887.08930913
 21
-371.80419567
 31
0.0
  0
ARC
  5
44A
100
AcDbEntity
  8
0
100
AcDbCircle
 10
569.23307826
 20
-289.06307721
 30
0.0
 40
30.00000000
100
AcDbArc
 50
84.151138067
 51
90.000000000
  0
ARC
  5
44B
100
AcDbEntity
  8
0
100
AcDbCircle
 10
569.23307826
 20
-289.06307721
 30
0.0
 40
30.00000000
100
AcDbArc
 50
90.000000000
 51
131.409622109
  0
ARC
  5
44C
100
AcDbEntity
  8
0
100
AcDbCircle
 10
506.81718359
 20
-344.37458281
 30
0.0
 40
30.00000000
100
AcDbArc
 50
131.823053076
 51
177.440136489
  0
ELLIPSE
  5
44D
100
AcDbEntity
  8
0
100
AcDbEllipse
 10
506.81718359
 20
-344.37458281
 30
0.0
 11
29.97006306
 21
-1.33989553
 31
0.0
 40
0.31328709
 41
3.14159265
 42
4.36491251
  0
LINE
  5
44E
100
AcDbEntity
  8
0
100
AcDbLine
 10
476.84712052
 20
-343.03468728
 30
0.0
 11
468.18848199
 21
-536.70646028
 31
0.0
  0
LINE
  5
44F
100
AcDbEntity
  8
0
100
AcDbLine
 10
468.72904730
 20
-524.61538599
 30
0.0
 11
445.93844600
 21
-544.71480708
 31
0.0
  0
LINE
  5
450
100
AcDbEntity
  8
0
100
AcDbLine
 10
866.87467364
 20
-597.74778690
 30
0.0
 11
445.93844600
 21
-544.71480708
 31
0.0
  0
LINE
  5
451
100
AcDbEntity
  8
0
100
AcDbLine
 10
866.87467364
 20
-597.74778690
 30
0.0
 11
942.85939124
 21
-530.73556483
 31
0.0
  0
POLYLINE
  5
452
100
AcDbEntity
  8
0
100
AcDb2dPolyline
 66
     1
  0
VERTEX
  5
453
100
AcDbEntity
  8
0
100
AcDbVertex
100
AcDb2dVertex
 10
920.13902977
 20
-527.87306835
 30
0.0
  0
VERTEX
  5
454
100
AcDbEntity
  8
0
100
AcDbVertex
100
AcDb2dVertex
 10
942.85939124
 20
-530.73556483
 30
0.0
  0
VERTEX
  5
455
100
AcDbEntity
  8
0
100
AcDbVertex
100
AcDb2dVertex
 10
942.85939124
 20
-546.41987453
 30
0.0
  0
SEQEND
  5
456
100
AcDbEntity
  8
0
  0
LINE
  5
457
100
AcDbEntity
  8
0
100
AcDbLine
 10
866.87467364
 20
-613.43209660
 30
0.0
 11
942.85939124
 21
-546.41987453
 31
0.0
  0
LINE
  5
458
100
AcDbEntity
  8
0
100
AcDbLine
 10
656.40655982
 20
-586.91560669
 30
0.0
 11
866.87467364
 21
-613.43209660
 31
0.0
  0
LINE
  5
459
100
AcDbEntity
  8
0
100
AcDbLine
 10
445.93844600
 20
-560.39911678
 30
0.0
 11
656.40655982
 21
-586.91560669
 31
0.0
  0
LINE
  5
45A
100
AcDbEntity
  8
0
100
AcDbLine
 10
445.93844600
 20
-544.71480708
 30
0.0
 11
445.93844600
 21
-560.39911678
 31
0.0
  0
LINE
  5
45B
100
AcDbEntity
  8
0
100
AcDbLine
 10
866.87467364
 20
-613.43209660
 30
0.0
 11
866.87467364
 21
-597.74778690
 31
0.0
  0
ENDBLK
  5
45C
100
AcDbEntity
  8
0
100
AcDbBlockEnd
  0
BLOCK
  5
45D
100
AcDbEntity
  8
0
100
AcDbBlockBegin
  2
FROM3D_00037
 70
    64
 10
0.0
 20
0.0
 30
0.0
  3
FROM3D_00037
  0
INSERT
  5
45E
100
AcDbEntity
  8
0
100
AcDbBlockReference
  2
FROM3D_00038
 10
555.38901111
 20
-624.57194655
 30
0.0
  0
ENDBLK
  5
45F
100
AcDbEntity
  8
0
100
AcDbBlockEnd
  0
BLOCK
  5
460
100
AcDbEntity
  8
0
100
AcDbBlockBegin
  2
FROM3D_00038
 70
    64
 10
555.38901111
 20
-624.57194655
 30
0.0
  3
FROM3D_00038
  0
ELLIPSE
  5
461
100
AcDbEntity
  8
0
100
AcDbEllipse
 10
558.55672130
 20
-626.07067239
 30
0.0
 11
5.50000000
 21
0.00000000
 31
0.0
 40
0.33333333
 41
2.18455881
 42
3.14159265
  0
ELLIPSE
  5
462
100
AcDbEntity
  8
0
100
AcDbEllipse
 10
558.55672130
 20
-626.07067239
 30
0.0
 11
5.50000000
 21
0.0
 31
0.0
 40
0.33333333
 41
3.14159265
 42
4.09862650
  0
POLYLINE
  5
463
100
AcDbEntity
  8
0
100
AcDb2dPolyline
 66
     1
  0
VERTEX
  5
464
100
AcDbEntity
  8
0
100
AcDbVertex
100
AcDb2dVertex
 10
555.38901111
 20
-631.37320726
 30
0.0
  0
VERTEX
  5
465
100
AcDbEntity
  8
0
100
AcDbVertex
100
AcDb2dVertex
 10
537.93314266
 20
-629.17402957
 30
0.0
  0
VERTEX
  5
466
100
AcDbEntity
  8
0
100
AcDbVertex
100
AcDb2dVertex
 10
537.93314266
 20
-646.14450387
 30
0.0
  0
SEQEND
  5
467
100
AcDbEntity
  8
0
  0
LINE
  5
468
100
AcDbEntity
  8
0
100
AcDbLine
 10
555.38901111
 20
-648.34373658
 30
0.0
 11
537.93314266
 21
-646.14450387
 31
0.0
  0
LINE
  5
469
100
AcDbEntity
  8
0
100
AcDbLine
 10
549.24686059
 20
-619.19617026
 30
0.0
 11
537.93314266
 21
-629.17402957
 31
0.0
  0
LINE
  5
46A
100
AcDbEntity
  8
0
100
AcDbLine
 10
555.38901111
 20
-619.97000716
 30
0.0
 11
549.24686059
 21
-619.19617026
 31
0.0
  0
LINE
  5
46B
100
AcDbEntity
  8
0
100
AcDbLine
 10
475.34920204
 20
-568.81856896
 30
0.0
 11
475.34920204
 21
-624.02809201
 31
0.0
  0
LINE
  5
46C
100
AcDbEntity
  8
0
100
AcDbLine
 10
537.93314266
 20
-631.91291386
 30
0.0
 11
475.34920204
 21
-624.02809201
 31
0.0
  0
ELLIPSE
  5
46D
100
AcDbEntity
  8
0
100
AcDbEllipse
 10
773.70206721
 20
-653.17639161
 30
0.0
 11
5.50000000
 21
0.0
 31
0.0
 40
0.33333333
 41
0.0
 42
3.14159265
  0
ELLIPSE
  5
46E
100
AcDbEntity
  8
0
100
AcDbEllipse
 10
773.70206721
 20
-653.17639161
 30
0.0
 11
5.50000000
 21
0.0
 31
0.0
 40
0.33333333
 41
3.14159265
 42
0.0
  0
POLYLINE
  5
46F
100
AcDbEntity
  8
0
100
AcDb2dPolyline
 66
     1
  0
VERTEX
  5
470
100
AcDbEntity
  8
0
100
AcDbVertex
100
AcDb2dVertex
 10
683.53358105
 20
-595.04733011
 30
0.0
  0
VERTEX
  5
471
100
AcDbEntity
  8
0
100
AcDbVertex
100
AcDb2dVertex
 10
683.53357587
 20
-590.33328947
 30
0.0
  0
VERTEX
  5
472
100
AcDbEntity
  8
0
100
AcDbVertex
100
AcDb2dVertex
 10
676.99290228
 20
-596.10163463
 30
0.0
  0
VERTEX
  5
473
100
AcDbEntity
  8
0
100
AcDbVertex
100
AcDb2dVertex
 10
676.99290228
 20
-671.52635795
 30
0.0
  0
SEQEND
  5
474
100
AcDbEntity
  8
0
  0
LINE
  5
475
100
AcDbEntity
  8
0
100
AcDbLine
 10
690.78145503
 20
-659.36596773
 30
0.0
 11
676.99290228
 21
-671.52635795
 31
0.0
  0
LINE
  5
476
100
AcDbEntity
  8
0
100
AcDbLine
 10
690.78145503
 20
-659.36596773
 30
0.0
 11
690.78145503
 21
-595.96047711
 31
0.0
  0
LINE
  5
477
100
AcDbEntity
  8
0
100
AcDbLine
 10
740.91806949
 20
-665.68257658
 30
0.0
 11
690.78145503
 21
-659.36596773
 31
0.0
  0
LINE
  5
478
100
AcDbEntity
  8
0
100
AcDbLine
 10
555.38901111
 20
-656.20573404
 30
0.0
 11
676.99290228
 21
-671.52635795
 31
0.0
  0
LINE
  5
479
100
AcDbEntity
  8
0
100
AcDbLine
 10
555.38901111
 20
-580.78101072
 30
0.0
 11
555.38901111
 21
-656.20573404
 31
0.0
  0
LINE
  5
47A
100
AcDbEntity
  8
0
100
AcDbLine
 10
561.92971080
 20
-575.01264254
 30
0.0
 11
555.38901111
 21
-580.78101072
 31
0.0
  0
LINE
  5
47B
100
AcDbEntity
  8
0
100
AcDbLine
 10
445.93844600
 20
-560.39911678
 30
0.0
 11
561.92971080
 21
-575.01264254
 31
0.0
  0
POLYLINE
  5
47C
100
AcDbEntity
  8
0
100
AcDb2dPolyline
 66
     1
  0
VERTEX
  5
47D
100
AcDbEntity
  8
0
100
AcDbVertex
100
AcDb2dVertex
 10
942.85939124
 20
-546.39038183
 30
0.0
  0
VERTEX
  5
47E
100
AcDbEntity
  8
0
100
AcDbVertex
100
AcDb2dVertex
 10
942.88865261
 20
-546.39406842
 30
0.0
  0
VERTEX
  5
47F
100
AcDbEntity
  8
0
100
AcDbVertex
100
AcDb2dVertex
 10
942.88865261
 20
-551.10811363
 30
0.0
  0
VERTEX
  5
480
100
AcDbEntity
  8
0
100
AcDbVertex
100
AcDb2dVertex
 10
866.87467364
 20
-618.14614181
 30
0.0
  0
SEQEND
  5
481
100
AcDbEntity
  8
0
  0
LINE
  5
482
100
AcDbEntity
  8
0
100
AcDbLine
 10
866.87467364
 20
-613.43209660
 30
0.0
 11
866.87467364
 21
-618.14614181
 31
0.0
  0
POLYLINE
  5
483
100
AcDbEntity
  8
0
100
AcDb2dPolyline
 66
     1
  0
VERTEX
  5
484
100
AcDbEntity
  8
0
100
AcDbVertex
100
AcDb2dVertex
 10
683.53357587
 20
-590.33328947
 30
0.0
  0
VERTEX
  5
485
100
AcDbEntity
  8
0
100
AcDbVertex
100
AcDb2dVertex
 10
866.87467364
 20
-613.43209660
 30
0.0
  0
VERTEX
  5
486
100
AcDbEntity
  8
0
100
AcDbVertex
100
AcDb2dVertex
 10
942.88865261
 20
-546.39406842
 30
0.0
  0
SEQEND
  5
487
100
AcDbEntity
  8
0
  0
POLYLINE
  5
488
100
AcDbEntity
  8
0
100
AcDb2dPolyline
 66
     1
  0
VERTEX
  5
489
100
AcDbEntity
  8
0
100
AcDbVertex
100
AcDb2dVertex
 10
866.87467364
 20
-618.14614181
 30
0.0
  0
VERTEX
  5
48A
100
AcDbEntity
  8
0
100
AcDbVertex
100
AcDb2dVertex
 10
750.88347181
 20
-603.53256830
 30
0.0
  0
VERTEX
  5
48B
100
AcDbEntity
  8
0
100
AcDbVertex
100
AcDb2dVertex
 10
736.85219530
 20
-601.76484931
 30
0.0
  0
VERTEX
  5
48C
100
AcDbEntity
  8
0
100
AcDbVertex
100
AcDb2dVertex
 10
683.53358105
 20
-595.04733011
 30
0.0
  0
SEQEND
  5
48D
100
AcDbEntity
  8
0
  0
LINE
  5
48E
100
AcDbEntity
  8
0
100
AcDbLine
 10
736.85219530
 20
-601.76484931
 30
0.0
 11
740.91809412
 21
-654.74758314
 31
0.0
  0
LINE
  5
48F
100
AcDbEntity
  8
0
100
AcDbLine
 10
754.94927411
 20
-656.51480821
 30
0.0
 11
740.91809412
 21
-654.74758314
 31
0.0
  0
LINE
  5
490
100
AcDbEntity
  8
0
100
AcDbLine
 10
754.94927411
 20
-656.51480821
 30
0.0
 11
750.88347181
 21
-603.53256830
 31
0.0
  0
POLYLINE
  5
491
100
AcDbEntity
  8
0
100
AcDb2dPolyline
 66
     1
  0
VERTEX
  5
492
100
AcDbEntity
  8
0
100
AcDbVertex
100
AcDb2dVertex
 10
868.22331196
 20
-616.95675460
 30
0.0
  0
VERTEX
  5
493
100
AcDbEntity
  8
0
100
AcDbVertex
100
AcDb2dVertex
 10
868.22331196
 20
-673.52549234
 30
0.0
  0
VERTEX
  5
494
100
AcDbEntity
  8
0
100
AcDbVertex
100
AcDb2dVertex
 10
794.32547202
 20
-664.21525562
 30
0.0
  0
SEQEND
  5
495
100
AcDbEntity
  8
0
  0
LINE
  5
496
100
AcDbEntity
  8
0
100
AcDbLine
 10
783.01170150
 20
-677.02149999
 30
0.0
 11
797.13171332
 21
-664.56880818
 31
0.0
  0
LINE
  5
497
100
AcDbEntity
  8
0
100
AcDbLine
 10
783.01170150
 20
-677.02149999
 30
0.0
 11
740.91805590
 21
-671.71819913
 31
0.0
  0
LINE
  5
498
100
AcDbEntity
  8
0
100
AcDbLine
 10
740.91809412
 20
-654.74758314
 30
0.0
 11
740.91805590
 21
-671.71819913
 31
0.0
  0
LINE
  5
499
100
AcDbEntity
  8
0
100
AcDbLine
 10
783.01170150
 20
-660.05025329
 30
0.0
 11
783.01170150
 21
-677.02149999
 31
0.0
  0
POLYLINE
  5
49A
100
AcDbEntity
  8
0
100
AcDb2dPolyline
 66
     1
  0
VERTEX
  5
49B
100
AcDbEntity
  8
0
100
AcDbVertex
100
AcDb2dVertex
 10
783.01170150
 20
-660.05025329
 30
0.0
  0
VERTEX
  5
49C
100
AcDbEntity
  8
0
100
AcDbVertex
100
AcDb2dVertex
 10
754.94927411
 20
-656.51480821
 30
0.0
  0
VERTEX
  5
49D
100
AcDbEntity
  8
0
100
AcDbVertex
100
AcDb2dVertex
 10
766.26303011
 20
-646.53759071
 30
0.0
  0
VERTEX
  5
49E
100
AcDbEntity
  8
0
100
AcDbVertex
100
AcDb2dVertex
 10
766.26303011
 20
-605.47021790
 30
0.0
  0
SEQEND
  5
49F
100
AcDbEntity
  8
0
  0
LINE
  5
4A0
100
AcDbEntity
  8
0
100
AcDbLine
 10
794.32547202
 20
-650.07311999
 30
0.0
 11
766.26303011
 21
-646.53759071
 31
0.0
  0
POLYLINE
  5
4A1
100
AcDbEntity
  8
0
100
AcDb2dPolyline
 66
     1
  0
VERTEX
  5
4A2
100
AcDbEntity
  8
0
100
AcDbVertex
100
AcDb2dVertex
 10
794.32547202
 20
-664.21525562
 30
0.0
  0
VERTEX
  5
4A3
100
AcDbEntity
  8
0
100
AcDbVertex
100
AcDb2dVertex
 10
794.32547202
 20
-650.07311999
 30
0.0
  0
VERTEX
  5
4A4
100
AcDbEntity
  8
0
100
AcDbVertex
100
AcDb2dVertex
 10
783.01170150
 20
-660.05025329
 30
0.0
  0
SEQEND
  5
4A5
100
AcDbEntity
  8
0
  0
LINE
  5
4A6
100
AcDbEntity
  8
0
100
AcDbLine
 10
868.22331196
 20
-673.52549234
 30
0.0
 11
913.47804399
 21
-633.61446737
 31
0.0
  0
LINE
  5
4A7
100
AcDbEntity
  8
0
100
AcDbLine
 10
913.47804399
 20
-577.04583240
 30
0.0
 11
913.47804399
 21
-633.61446737
 31
0.0
  0
LINE
  5
4A8
100
AcDbEntity
  8
0
100
AcDbLine
 10
445.93844600
 20
-560.39911678
 30
0.0
 11
445.93844600
 21
-565.11316199
 31
0.0
  0
LINE
  5
4A9
100
AcDbEntity
  8
0
100
AcDbLine
 10
557.25264847
 20
-579.13743328
 30
0.0
 11
445.93844600
 21
-565.11316199
 31
0.0
  0
LINE
  5
4AA
100
AcDbEntity
  8
0
100
AcDbLine
 10
555.38901111
 20
-580.78101072
 30
0.0
 11
676.99290228
 21
-596.10163463
 31
0.0
  0
ENDBLK
  5
4AB
100
AcDbEntity
  8
0
100
AcDbBlockEnd
  0
BLOCK
  5
4AC
100
AcDbEntity
  8
0
100
AcDbBlockBegin
  2
FROM3D_00039
 70
    64
 10
0.0
 20
0.0
 30
0.0
  3
FROM3D_00039
  0
INSERT
  5
4AD
100
AcDbEntity
  8
0
100
AcDbBlockReference
  2
FROM3D_00040
 10
870.87718191
 20
-119.83639898
 30
0.0
  0
ENDBLK
  5
4AE
100
AcDbEntity
  8
0
100
AcDbBlockEnd
  0
BLOCK
  5
4AF
100
AcDbEntity
  8
0
100
AcDbBlockBegin
  2
FROM3D_00040
 70
    64
 10
870.87718191
 20
-119.83639898
 30
0.0
  3
FROM3D_00040
  0
ELLIPSE
  5
4B0
100
AcDbEntity
  8
LE_ALL
100
AcDbEllipse
  6
PHANTOM
 62
     1
 10
875.50724671
 20
-125.08639898
 30
0.0
 11
4.63006479
 21
-5.25000000
 31
0.0
 40
0.88191710
 41
3.14159265
 42
6.28318531
  0
ELLIPSE
  5
4B1
100
AcDbEntity
  8
LE_ALL
100
AcDbEllipse
  6
PHANTOM
 62
     1
 10
875.50724671
 20
-125.08639898
 30
0.0
 11
4.63006479
 21
-5.25000000
 31
0.0
 40
0.88191710
 41
6.28318531
 42
3.14159265
  0
LINE
  5
4B2
100
AcDbEntity
  8
LE_ALL
100
AcDbLine
  6
PHANTOM
 10
874.41271582
 20
-116.71835115
 30
0.0
 11
870.87718191
 21
-119.83639898
 31
0.0
  0
ELLIPSE
  5
4B3
100
AcDbEntity
  8
LE_ALL
100
AcDbEllipse
  6
PHANTOM
 62
     1
 10
879.04278061
 20
-121.96835115
 30
0.0
 11
4.63006479
 21
-5.25000000
 31
0.0
 40
0.88191710
 41
3.14159265
 42
0.00000000
  0
LINE
  5
4B4
100
AcDbEntity
  8
LE_ALL
100
AcDbLine
  6
PHANTOM
 10
883.67284541
 20
-127.21835115
 30
0.0
 11
880.13731150
 21
-130.33639898
 31
0.0
  0
ELLIPSE
  5
4B5
100
AcDbEntity
  8
LE_ALL
100
AcDbEllipse
  6
PHANTOM
 62
     1
 10
509.76411949
 20
-79.00709620
 30
0.0
 11
4.63006479
 21
-5.25000000
 31
0.0
 40
0.88191710
 41
3.14159265
 42
0.00000000
  0
ELLIPSE
  5
4B6
100
AcDbEntity
  8
LE_ALL
100
AcDbEllipse
  6
PHANTOM
 62
     1
 10
509.76411949
 20
-79.00709620
 30
0.0
 11
4.63006479
 21
-5.25000000
 31
0.0
 40
0.88191710
 41
6.28318531
 42
3.14159265
  0
LINE
  5
4B7
100
AcDbEntity
  8
LE_ALL
100
AcDbLine
  6
PHANTOM
 10
517.92971819
 20
-81.13904837
 30
0.0
 11
514.39418428
 21
-84.25709620
 31
0.0
  0
ELLIPSE
  5
4B8
100
AcDbEntity
  8
LE_ALL
100
AcDbEllipse
  6
PHANTOM
 62
     1
 10
513.29965339
 20
-75.88904837
 30
0.0
 11
4.63006479
 21
-5.25000000
 31
0.0
 40
0.88191710
 41
3.14159265
 42
6.28318531
  0
LINE
  5
4B9
100
AcDbEntity
  8
LE_ALL
100
AcDbLine
  6
PHANTOM
 10
508.66958860
 20
-70.63904837
 30
0.0
 11
505.13405469
 21
-73.75709620
 31
0.0
  0
POLYLINE
  5
4BA
100
AcDbEntity
  8
LE_ALL
100
AcDb2dPolyline
  6
PHANTOM
 62
     1
 66
     1
  0
VERTEX
  5
4BB
100
AcDbEntity
  8
LE_ALL
100
AcDbVertex
100
AcDb2dVertex
 10
914.08225203
 20
-231.40694812
 30
0.0
  0
VERTEX
  5
4BC
100
AcDbEntity
  8
LE_ALL
100
AcDbVertex
100
AcDb2dVertex
 10
869.39402905
 20
-270.81825630
 30
0.0
  0
VERTEX
  5
4BD
100
AcDbEntity
  8
LE_ALL
100
AcDbVertex
100
AcDb2dVertex
 10
867.67666316
 20
-179.62093295
 30
0.0
  0
VERTEX
  5
4BE
100
AcDbEntity
  8
LE_ALL
100
AcDbVertex
100
AcDb2dVertex
 10
887.08930913
 20
-162.50058844
 30
0.0
  0
VERTEX
  5
4BF
100
AcDbEntity
  8
LE_ALL
100
AcDbVertex
100
AcDb2dVertex
 10
887.13792510
 20
-164.02215882
 30
0.0
  0
SEQEND
  5
4C0
100
AcDbEntity
  8
LE_ALL
  0
LINE
  5
4C1
100
AcDbEntity
  8
LE_ALL
100
AcDbLine
  6
PHANTOM
 62
     1
 10
890.67345901
 20
-160.90411100
 30
0.0
 11
887.13792510
 21
-164.02215882
 31
0.0
  0
POLYLINE
  5
4C2
100
AcDbEntity
  8
LE_ALL
100
AcDb2dPolyline
  6
PHANTOM
 62
     1
 66
     1
  0
VERTEX
  5
4C3
100
AcDbEntity
  8
LE_ALL
100
AcDbVertex
100
AcDb2dVertex
 10
890.67345901
 20
-160.90411100
 30
0.0
  0
VERTEX
  5
4C4
100
AcDbEntity
  8
LE_ALL
100
AcDbVertex
100
AcDb2dVertex
 10
890.62484304
 20
-159.38254061
 30
0.0
  0
VERTEX
  5
4C5
100
AcDbEntity
  8
LE_ALL
100
AcDbVertex
100
AcDb2dVertex
 10
910.03748670
 20
-142.26219815
 30
0.0
  0
VERTEX
  5
4C6
100
AcDbEntity
  8
LE_ALL
100
AcDbVertex
100
AcDb2dVertex
 10
914.08225203
 20
-231.40694812
 30
0.0
  0
SEQEND
  5
4C7
100
AcDbEntity
  8
LE_ALL
  0
ELLIPSE
  5
4C8
100
AcDbEntity
  8
LE_ALL
100
AcDbEllipse
  6
PHANTOM
 62
     1
 10
885.99331202
 20
-227.88001200
 30
0.0
 11
30.02703313
 21
0.00996850
 31
0.0
 40
0.33310573
 41
5.92182275
 42
0.01500207
  0
LINE
  5
4C9
100
AcDbEntity
  8
LE_ALL
100
AcDbLine
  6
PHANTOM
 10
911.95888114
 20
-138.28278339
 30
0.0
 11
916.01691642
 21
-227.71999689
 31
0.0
  0
ELLIPSE
  5
4CA
100
AcDbEntity
  8
LE_ALL
100
AcDbEllipse
  6
PHANTOM
 62
     1
 10
881.98971419
 20
-139.64257460
 30
0.0
 11
29.96916695
 21
1.35979121
 31
0.0
 40
0.35263409
 41
5.90682068
 42
0.00000000
  0
ELLIPSE
  5
4CB
100
AcDbEntity
  8
LE_ALL
100
AcDbEllipse
  6
PHANTOM
 62
     1
 10
881.98971419
 20
-139.64257460
 30
0.0
 11
19.84313483
 21
-22.50000000
 31
0.0
 40
0.88191710
 41
0.81772082
 42
1.56434898
  0
ELLIPSE
  5
4CC
100
AcDbEntity
  8
LE_ALL
100
AcDbEllipse
  6
PHANTOM
 62
     1
 10
881.98971419
 20
-139.64257460
 30
0.0
 11
22.38241603
 21
19.97567152
 31
0.0
 40
0.02471821
 41
5.79215037
 42
6.28318531
  0
ARC
  5
4CD
100
AcDbEntity
  8
LE_ALL
100
AcDbCircle
  6
PHANTOM
 10
881.98971419
 20
-139.64257460
 30
0.0
 40
30.00000000
100
AcDbArc
 50
2.597899987
 51
41.737244793
  0
LINE
  5
4CE
100
AcDbEntity
  8
LE_ALL
100
AcDbLine
  6
PHANTOM
 10
883.77930739
 20
-96.59297901
 30
0.0
 11
904.37213022
 21
-119.66690308
 31
0.0
  0
ELLIPSE
  5
4CF
100
AcDbEntity
  8
LE_ALL
100
AcDbEllipse
  6
PHANTOM
 62
     1
 10
861.39689136
 20
-116.56865052
 30
0.0
 11
22.38241603
 21
19.97567152
 31
0.0
 40
0.02471821
 41
5.79215037
 42
0.00000000
  0
POLYLINE
  5
4D0
100
AcDbEntity
  8
LE_ALL
100
AcDb2dPolyline
  6
PHANTOM
 62
     1
 66
     1
  0
VERTEX
  5
4D1
100
AcDbEntity
  8
LE_ALL
100
AcDbVertex
100
AcDb2dVertex
 10
881.36754844
 20
-99.21407852
 30
0.0
  0
VERTEX
  5
4D2
100
AcDbEntity
  8
LE_ALL
100
AcDbVertex
100
AcDb2dVertex
 10
901.96037127
 20
-122.28800260
 30
0.0
  0
VERTEX
  5
4D3
100
AcDbEntity
  8
LE_ALL
100
AcDbVertex
100
AcDb2dVertex
 10
882.54772761
 20
-139.40834507
 30
0.0
  0
VERTEX
  5
4D4
100
AcDbEntity
  8
LE_ALL
100
AcDbVertex
100
AcDb2dVertex
 10
862.22378063
 20
-116.09729478
 30
0.0
  0
SEQEND
  5
4D5
100
AcDbEntity
  8
LE_ALL
  0
ELLIPSE
  5
4D6
100
AcDbEntity
  8
LE_ALL
100
AcDbEllipse
  6
PHANTOM
 62
     1
 10
842.25312355
 20
-133.45186678
 30
0.0
 11
19.84313483
 21
-22.50000000
 31
0.0
 40
0.88191710
 41
1.56434898
 42
2.33253156
  0
LINE
  5
4D7
100
AcDbEntity
  8
LE_ALL
100
AcDbLine
  6
PHANTOM
 62
     1
 10
842.91710097
 20
-105.25916713
 30
0.0
 11
841.71622062
 21
-105.07922409
 31
0.0
  0
LINE
  5
4D8
100
AcDbEntity
  8
LE_ALL
100
AcDbLine
  6
PHANTOM
 62
     1
 10
875.33742799
 20
-107.21287710
 30
0.0
 11
841.71622062
 21
-105.07922409
 31
0.0
  0
ELLIPSE
  5
4D9
100
AcDbEntity
  8
LE_ALL
100
AcDbEllipse
  6
PHANTOM
 62
     1
 10
876.37995559
 20
-124.28221539
 30
0.0
 11
11.90587457
 21
-13.49999283
 31
0.0
 40
0.88191710
 41
0.71052979
 42
2.41815131
  0
LINE
  5
4DA
100
AcDbEntity
  8
LE_ALL
100
AcDbLine
  6
PHANTOM
 62
     1
 10
890.67345901
 20
-160.90411100
 30
0.0
 11
893.17023767
 21
-127.66696323
 31
0.0
  0
LINE
  5
4DB
100
AcDbEntity
  8
LE_ALL
100
AcDbLine
  6
PHANTOM
 62
     1
 10
889.63471706
 20
-130.78483409
 30
0.0
 11
893.17023767
 21
-127.66696323
 31
0.0
  0
LINE
  5
4DC
100
AcDbEntity
  8
LE_ALL
100
AcDbLine
  6
PHANTOM
 62
     1
 10
887.13792510
 20
-164.02215882
 30
0.0
 11
889.63471706
 21
-130.78483409
 31
0.0
  0
ELLIPSE
  5
4DD
100
AcDbEntity
  8
LE_ALL
100
AcDbEllipse
  6
PHANTOM
 62
     1
 10
872.84442169
 20
-127.40026321
 30
0.0
 11
11.90587457
 21
-13.49999283
 31
0.0
 40
0.88191710
 41
0.71054034
 42
2.41815131
  0
POLYLINE
  5
4DE
100
AcDbEntity
  8
LE_ALL
100
AcDb2dPolyline
  6
PHANTOM
 62
     1
 66
     1
  0
VERTEX
  5
4DF
100
AcDbEntity
  8
LE_ALL
100
AcDbVertex
100
AcDb2dVertex
 10
871.80189409
 20
-110.33092492
 30
0.0
  0
VERTEX
  5
4E0
100
AcDbEntity
  8
LE_ALL
100
AcDbVertex
100
AcDb2dVertex
 10
838.18068672
 20
-108.19727191
 30
0.0
  0
VERTEX
  5
4E1
100
AcDbEntity
  8
LE_ALL
100
AcDbVertex
100
AcDb2dVertex
 10
839.38156707
 20
-108.37721495
 30
0.0
  0
SEQEND
  5
4E2
100
AcDbEntity
  8
LE_ALL
  0
ELLIPSE
  5
4E3
100
AcDbEntity
  8
LE_ALL
100
AcDbEllipse
  6
PHANTOM
 62
     1
 10
838.71758965
 20
-136.56991461
 30
0.0
 11
19.84313483
 21
-22.50000000
 31
0.0
 40
0.88191710
 41
1.56434898
 42
2.33253156
  0
POLYLINE
  5
4E4
100
AcDbEntity
  8
LE_ALL
100
AcDb2dPolyline
  6
PHANTOM
 62
     1
 66
     1
  0
VERTEX
  5
4E5
100
AcDbEntity
  8
LE_ALL
100
AcDbVertex
100
AcDb2dVertex
 10
858.68824673
 20
-119.21534261
 30
0.0
  0
VERTEX
  5
4E6
100
AcDbEntity
  8
LE_ALL
100
AcDbVertex
100
AcDb2dVertex
 10
879.01219371
 20
-142.52639289
 30
0.0
  0
VERTEX
  5
4E7
100
AcDbEntity
  8
LE_ALL
100
AcDbVertex
100
AcDb2dVertex
 10
859.59954773
 20
-159.64673741
 30
0.0
  0
SEQEND
  5
4E8
100
AcDbEntity
  8
LE_ALL
  0
ELLIPSE
  5
4E9
100
AcDbEntity
  8
LE_ALL
100
AcDbEllipse
  6
PHANTOM
 62
     1
 10
839.62889065
 20
-177.00130941
 30
0.0
 11
22.83944684
 21
19.45146956
 31
0.0
 40
0.01864166
 41
0.49096447
 42
2.03749768
  0
POLYLINE
  5
4EA
100
AcDbEntity
  8
LE_ALL
100
AcDb2dPolyline
  6
PHANTOM
 62
     1
 66
     1
  0
VERTEX
  5
4EB
100
AcDbEntity
  8
LE_ALL
100
AcDbVertex
100
AcDb2dVertex
 10
829.02861524
 20
-185.37312647
 30
0.0
  0
VERTEX
  5
4EC
100
AcDbEntity
  8
LE_ALL
100
AcDbVertex
100
AcDb2dVertex
 10
830.74717981
 20
-276.63410298
 30
0.0
  0
VERTEX
  5
4ED
100
AcDbEntity
  8
LE_ALL
100
AcDbVertex
100
AcDb2dVertex
 10
492.16930966
 20
-233.97730089
 30
0.0
  0
SEQEND
  5
4EE
100
AcDbEntity
  8
LE_ALL
  0
ELLIPSE
  5
4EF
100
AcDbEntity
  8
LE_ALL
100
AcDbEllipse
  6
PHANTOM
 62
     1
 10
502.81357581
 20
-224.62152257
 30
0.0
 11
30.02703326
 21
0.00996866
 31
0.0
 40
0.33310573
 41
3.12659055
 42
4.34991040
  0
LINE
  5
4F0
100
AcDbEntity
  8
LE_ALL
100
AcDbLine
  6
PHANTOM
 10
476.84712052
 20
-133.73108005
 30
0.0
 11
472.78987166
 21
-224.48144199
 31
0.0
  0
ELLIPSE
  5
4F1
100
AcDbEntity
  8
LE_ALL
100
AcDbEllipse
  6
PHANTOM
 62
     1
 10
506.81718359
 20
-135.07097558
 30
0.0
 11
29.97006306
 21
-1.33989553
 31
0.0
 40
0.31328709
 41
3.14159265
 42
4.36491251
  0
ELLIPSE
  5
4F2
100
AcDbEntity
  8
LE_ALL
100
AcDbEllipse
  6
PHANTOM
 62
     1
 10
506.81718359
 20
-135.07097558
 30
0.0
 11
20.00497080
 21
-22.35623276
 31
0.0
 40
0.44957224
 41
3.14159265
 42
4.68472333
  0
LINE
  5
4F3
100
AcDbEntity
  8
LE_ALL
100
AcDbLine
  6
PHANTOM
 10
507.40503794
 20
-94.28771756
 30
0.0
 11
486.81221278
 21
-112.71474282
 31
0.0
  0
ELLIPSE
  5
4F4
100
AcDbEntity
  8
LE_ALL
100
AcDbEllipse
  6
PHANTOM
 62
     1
 10
527.41000874
 20
-116.64395031
 30
0.0
 11
20.00497080
 21
-22.35623276
 31
0.0
 40
0.44957224
 41
3.14159265
 42
4.68472333
  0
ELLIPSE
  5
4F5
100
AcDbEntity
  8
LE_ALL
100
AcDbEllipse
  6
PHANTOM
 62
     1
 10
527.41000874
 20
-116.64395031
 30
0.0
 11
-3.03917273
 21
-29.84566014
 31
0.0
 40
0.34040578
 41
3.49491599
 42
5.03118190
  0
POLYLINE
  5
4F6
100
AcDbEntity
  8
LE_ALL
100
AcDb2dPolyline
  6
PHANTOM
 62
     1
 66
     1
  0
VERTEX
  5
4F7
100
AcDbEntity
  8
LE_ALL
100
AcDbVertex
100
AcDb2dVertex
 10
526.74603132
 20
-88.28394407
 30
0.0
  0
VERTEX
  5
4F8
100
AcDbEntity
  8
LE_ALL
100
AcDbVertex
100
AcDb2dVertex
 10
545.88979913
 20
-71.40072781
 30
0.0
  0
VERTEX
  5
4F9
100
AcDbEntity
  8
LE_ALL
100
AcDbVertex
100
AcDb2dVertex
 10
547.09067948
 20
-71.52337818
 30
0.0
  0
VERTEX
  5
4FA
100
AcDbEntity
  8
LE_ALL
100
AcDbVertex
100
AcDb2dVertex
 10
550.62621338
 20
-68.40533036
 30
0.0
  0
VERTEX
  5
4FB
100
AcDbEntity
  8
LE_ALL
100
AcDbVertex
100
AcDb2dVertex
 10
549.42533303
 20
-68.28267999
 30
0.0
  0
SEQEND
  5
4FC
100
AcDbEntity
  8
LE_ALL
  0
ELLIPSE
  5
4FD
100
AcDbEntity
  8
LE_ALL
100
AcDbEllipse
  6
PHANTOM
 62
     1
 10
550.08931045
 20
-96.64268623
 30
0.0
 11
19.84313483
 21
-22.50000000
 31
0.0
 40
0.88191710
 41
2.37985742
 42
3.14159265
  0
LINE
  5
4FE
100
AcDbEntity
  8
LE_ALL
100
AcDbLine
  6
PHANTOM
 10
549.38994343
 20
-57.25946998
 30
0.0
 11
530.24617562
 21
-74.14268623
 31
0.0
  0
ELLIPSE
  5
4FF
100
AcDbEntity
  8
LE_ALL
100
AcDbEllipse
  6
PHANTOM
 62
     1
 10
569.23307826
 20
-79.75946998
 30
0.0
 11
19.84313483
 21
-22.50000000
 31
0.0
 40
0.88191710
 41
2.37985742
 42
3.14159265
  0
ELLIPSE
  5
500
100
AcDbEntity
  8
LE_ALL
100
AcDbEllipse
  6
PHANTOM
 62
     1
 10
569.23307826
 20
-79.75946998
 30
0.0
 11
-3.05714089
 21
-29.84382498
 31
0.0
 40
0.34184783
 41
3.14159265
 42
3.49512137
  0
LINE
  5
501
100
AcDbEntity
  8
LE_ALL
100
AcDbLine
  6
PHANTOM
 10
572.29021922
 20
-49.91564500
 30
0.0
 11
718.94175649
 21
-64.93833096
 31
0.0
  0
ELLIPSE
  5
502
100
AcDbEntity
  8
LE_ALL
100
AcDbEllipse
  6
PHANTOM
 62
     1
 10
715.26983150
 20
-94.71917871
 30
0.0
 11
-3.74866840
 21
-29.77208686
 31
0.0
 40
0.33326768
 41
3.13386923
 42
3.14931608
  0
POLYLINE
  5
503
100
AcDbEntity
  8
LE_ALL
100
AcDb2dPolyline
  6
PHANTOM
 66
     1
  0
VERTEX
  5
504
100
AcDbEntity
  8
LE_ALL
100
AcDbVertex
100
AcDb2dVertex
 10
719.09501970
 20
-64.95762866
 30
0.0
  0
VERTEX
  5
505
100
AcDbEntity
  8
LE_ALL
100
AcDbVertex
100
AcDb2dVertex
 10
865.83328615
 20
-86.89849041
 30
0.0
  0
SEQEND
  5
506
100
AcDbEntity
  8
LE_ALL
  0
ELLIPSE
  5
507
100
AcDbEntity
  8
LE_ALL
100
AcDbEllipse
  6
PHANTOM
 62
     1
 10
861.39689136
 20
-116.56865052
 30
0.0
 11
-4.43639479
 21
-29.67016012
 31
0.0
 40
0.32463198
 41
3.14159265
 42
3.51056821
  0
ELLIPSE
  5
508
100
AcDbEntity
  8
LE_ALL
100
AcDbEllipse
  6
PHANTOM
 62
     1
 10
861.39689136
 20
-116.56865052
 30
0.0
 11
19.84313483
 21
-22.50000000
 31
0.0
 40
0.88191710
 41
1.56434898
 42
2.33253156
  0
LINE
  5
509
100
AcDbEntity
  8
LE_ALL
100
AcDbLine
  6
PHANTOM
 62
     1
 10
862.22378063
 20
-116.09729478
 30
0.0
 11
881.36754844
 21
-99.21407852
 31
0.0
  0
LINE
  5
50A
100
AcDbEntity
  8
LE_ALL
100
AcDbLine
  6
PHANTOM
 62
     1
 10
715.26962627
 20
-66.42716794
 30
0.0
 11
862.06086878
 21
-88.37595087
 31
0.0
  0
ELLIPSE
  5
50B
100
AcDbEntity
  8
LE_ALL
100
AcDbEllipse
  6
PHANTOM
 62
     1
 10
715.26983150
 20
-94.71917871
 30
0.0
 11
-3.74866840
 21
-29.77208686
 31
0.0
 40
0.33326768
 41
3.14931608
 42
3.50284479
  0
LINE
  5
50C
100
AcDbEntity
  8
LE_ALL
100
AcDbLine
  6
PHANTOM
 62
     1
 10
568.56910084
 20
-51.39946373
 30
0.0
 11
715.26962627
 21
-66.42716794
 31
0.0
  0
LINE
  5
50D
100
AcDbEntity
  8
LE_ALL
100
AcDbLine
  6
PHANTOM
 62
     1
 10
549.42533303
 20
-68.28267999
 30
0.0
 11
568.56910084
 21
-51.39946373
 31
0.0
  0
LINE
  5
50E
100
AcDbEntity
  8
LE_ALL
100
AcDbLine
  6
PHANTOM
 62
     1
 10
673.53727422
 20
-103.23164299
 30
0.0
 11
715.26962627
 21
-66.42716794
 31
0.0
  0
POLYLINE
  5
50F
100
AcDbEntity
  8
LE_ALL
100
AcDb2dPolyline
  6
PHANTOM
 62
     1
 66
     1
  0
VERTEX
  5
510
100
AcDbEntity
  8
LE_ALL
100
AcDbVertex
100
AcDb2dVertex
 10
673.53727422
 20
-103.23164299
 30
0.0
  0
VERTEX
  5
511
100
AcDbEntity
  8
LE_ALL
100
AcDbVertex
100
AcDb2dVertex
 10
526.74603132
 20
-88.28394407
 30
0.0
  0
SEQEND
  5
512
100
AcDbEntity
  8
LE_ALL
  0
ELLIPSE
  5
513
100
AcDbEntity
  8
LE_ALL
100
AcDbEllipse
  6
PHANTOM
 62
     1
 10
527.41000874
 20
-116.64395031
 30
0.0
 11
19.84313483
 21
-22.50000000
 31
0.0
 40
0.88191710
 41
2.37985742
 42
3.14159265
  0
LINE
  5
514
100
AcDbEntity
  8
LE_ALL
100
AcDbLine
  6
PHANTOM
 10
526.71064172
 20
-77.26073406
 30
0.0
 11
507.56687391
 21
-94.14395031
 31
0.0
  0
ELLIPSE
  5
515
100
AcDbEntity
  8
LE_ALL
100
AcDbEllipse
  6
PHANTOM
 62
     1
 10
546.55377655
 20
-99.76073406
 30
0.0
 11
19.84313483
 21
-22.50000000
 31
0.0
 40
0.88191710
 41
3.14159265
 42
3.14804000
  0
LINE
  5
516
100
AcDbEntity
  8
LE_ALL
100
AcDbLine
  6
PHANTOM
 62
     1
 10
506.25917248
 20
-95.56392648
 30
0.0
 11
526.58311947
 21
-77.37402947
 31
0.0
  0
ELLIPSE
  5
517
100
AcDbEntity
  8
LE_ALL
100
AcDbEllipse
  6
PHANTOM
 62
     1
 10
526.22982957
 20
-117.95063107
 30
0.0
 11
19.84313483
 21
-22.50000000
 31
0.0
 40
0.88191710
 41
3.14804000
 42
3.89466816
  0
LINE
  5
518
100
AcDbEntity
  8
LE_ALL
100
AcDbLine
  6
PHANTOM
 62
     1
 10
498.13344109
 20
-115.01220056
 30
0.0
 11
498.18205706
 21
-113.50288024
 31
0.0
  0
LINE
  5
519
100
AcDbEntity
  8
LE_ALL
100
AcDbLine
  6
PHANTOM
 62
     1
 10
498.13344109
 20
-115.01220056
 30
0.0
 11
495.63664913
 21
-81.14574339
 31
0.0
  0
ELLIPSE
  5
51A
100
AcDbEntity
  8
LE_ALL
100
AcDbEllipse
  6
PHANTOM
 62
     1
 10
512.42694451
 20
-81.99192927
 30
0.0
 11
11.90587457
 21
-13.49999283
 31
0.0
 40
0.88191710
 41
3.14159265
 42
4.00184864
  0
ELLIPSE
  5
51B
100
AcDbEntity
  8
LE_ALL
100
AcDbEllipse
  6
PHANTOM
 62
     1
 10
512.42694451
 20
-81.99192927
 30
0.0
 11
11.90587457
 21
-13.49999283
 31
0.0
 40
0.88191710
 41
2.29423767
 42
3.14159265
  0
LINE
  5
51C
100
AcDbEntity
  8
LE_ALL
100
AcDbLine
  6
PHANTOM
 62
     1
 10
517.00500601
 20
-62.06723542
 30
0.0
 11
513.46947210
 21
-65.18528324
 31
0.0
  0
LINE
  5
51D
100
AcDbEntity
  8
LE_ALL
100
AcDbLine
  6
PHANTOM
 62
     1
 10
517.00500601
 20
-62.06723542
 30
0.0
 11
550.62621338
 21
-68.40533036
 31
0.0
  0
ELLIPSE
  5
51E
100
AcDbEntity
  8
LE_ALL
100
AcDbEllipse
  6
PHANTOM
 62
     1
 10
515.96247841
 20
-78.87388144
 30
0.0
 11
11.90587457
 21
-13.49999283
 31
0.0
 40
0.88191710
 41
2.29423767
 42
3.14159265
  0
LINE
  5
51F
100
AcDbEntity
  8
LE_ALL
100
AcDbLine
  6
PHANTOM
 10
504.05660384
 20
-65.37388862
 30
0.0
 11
500.52106993
 21
-68.49193644
 31
0.0
  0
LINE
  5
520
100
AcDbEntity
  8
LE_ALL
100
AcDbLine
  6
PHANTOM
 62
     1
 10
513.46947210
 20
-65.18528324
 30
0.0
 11
547.09067948
 21
-71.52337818
 31
0.0
  0
ELLIPSE
  5
521
100
AcDbEntity
  8
LE_ALL
100
AcDbEllipse
  6
PHANTOM
 62
     1
 10
546.55377655
 20
-99.76073406
 30
0.0
 11
19.84313483
 21
-22.50000000
 31
0.0
 40
0.88191710
 41
2.37985742
 42
3.14159265
  0
ARC
  5
522
100
AcDbEntity
  8
LE_ALL
100
AcDbCircle
  6
PHANTOM
 10
527.41000874
 20
-116.64395031
 30
0.0
 40
30.00000000
100
AcDbArc
 50
131.409622109
 51
131.823053076
  0
LINE
  5
523
100
AcDbEntity
  8
LE_ALL
100
AcDbLine
  6
PHANTOM
 62
     1
 10
820.23779926
 20
-125.26043121
 30
0.0
 11
673.53727422
 21
-103.23164299
 31
0.0
  0
POLYLINE
  5
524
100
AcDbEntity
  8
LE_ALL
100
AcDb2dPolyline
  6
PHANTOM
 62
     1
 66
     1
  0
VERTEX
  5
525
100
AcDbEntity
  8
LE_ALL
100
AcDbVertex
100
AcDb2dVertex
 10
839.38156707
 20
-108.37721495
 30
0.0
  0
VERTEX
  5
526
100
AcDbEntity
  8
LE_ALL
100
AcDbVertex
100
AcDb2dVertex
 10
820.23779926
 20
-125.26043121
 30
0.0
  0
SEQEND
  5
527
100
AcDbEntity
  8
LE_ALL
  0
ELLIPSE
  5
528
100
AcDbEntity
  8
LE_ALL
100
AcDbEllipse
  6
PHANTOM
 62
     1
 10
819.57382184
 20
-153.45313086
 30
0.0
 11
-4.45490281
 21
-29.66738682
 31
0.0
 40
0.32607403
 41
3.51077118
 42
5.04703708
  0
POLYLINE
  5
529
100
AcDbEntity
  8
LE_ALL
100
AcDb2dPolyline
  6
PHANTOM
 62
     1
 66
     1
  0
VERTEX
  5
52A
100
AcDbEntity
  8
LE_ALL
100
AcDbVertex
100
AcDb2dVertex
 10
808.97354642
 20
-161.82494793
 30
0.0
  0
VERTEX
  5
52B
100
AcDbEntity
  8
LE_ALL
100
AcDbVertex
100
AcDb2dVertex
 10
829.02861524
 20
-185.37312647
 30
0.0
  0
SEQEND
  5
52C
100
AcDbEntity
  8
LE_ALL
  0
ELLIPSE
  5
52D
100
AcDbEntity
  8
LE_ALL
100
AcDbEllipse
  6
PHANTOM
 62
     1
 10
839.62889065
 20
-177.00130941
 30
0.0
 11
29.99468214
 21
0.56483943
 31
0.0
 40
0.29175524
 41
4.34569194
 42
5.91537225
  0
ELLIPSE
  5
52E
100
AcDbEntity
  8
LE_ALL
100
AcDbEllipse
  6
PHANTOM
 62
     1
 10
839.62889065
 20
-177.00130941
 30
0.0
 11
19.84313483
 21
-22.50000000
 31
0.0
 40
0.88191710
 41
0.81772082
 42
1.56434898
  0
LINE
  5
52F
100
AcDbEntity
  8
LE_ALL
100
AcDbLine
  6
PHANTOM
 62
     1
 10
859.59954773
 20
-159.64673741
 30
0.0
 11
839.54447892
 21
-136.09855886
 31
0.0
  0
ELLIPSE
  5
530
100
AcDbEntity
  8
LE_ALL
100
AcDbEllipse
  6
PHANTOM
 62
     1
 10
819.57382184
 20
-153.45313086
 30
0.0
 11
22.83944684
 21
19.45146956
 31
0.0
 40
0.01864166
 41
0.49096447
 42
2.03749768
  0
LINE
  5
531
100
AcDbEntity
  8
LE_ALL
100
AcDbLine
  6
PHANTOM
 62
     1
 10
662.93679357
 20
-139.89583282
 30
0.0
 11
808.97354642
 21
-161.82494793
 31
0.0
  0
LINE
  5
532
100
AcDbEntity
  8
LE_ALL
100
AcDbLine
  6
PHANTOM
 62
     1
 10
516.80973333
 20
-125.01576738
 30
0.0
 11
662.93679357
 21
-139.89583282
 31
0.0
  0
LINE
  5
533
100
AcDbEntity
  8
LE_ALL
100
AcDbLine
  6
PHANTOM
 62
     1
 10
496.21690817
 20
-143.44279264
 30
0.0
 11
516.80973333
 21
-125.01576738
 31
0.0
  0
LINE
  5
534
100
AcDbEntity
  8
LE_ALL
100
AcDbLine
  6
PHANTOM
 62
     1
 10
492.16930966
 20
-233.97730089
 30
0.0
 11
496.21690817
 21
-143.44279264
 31
0.0
  0
ELLIPSE
  5
535
100
AcDbEntity
  8
LE_ALL
100
AcDbEllipse
  6
PHANTOM
 62
     1
 10
673.53706898
 20
-131.52401576
 30
0.0
 11
-3.74904039
 21
-29.77242700
 31
0.0
 40
0.33325915
 41
3.50284358
 42
5.03910949
  0
LINE
  5
536
100
AcDbEntity
  8
LE_ALL
100
AcDbLine
  6
PHANTOM
 62
     1
 10
839.54447892
 20
-136.09855886
 30
0.0
 11
858.68824673
 21
-119.21534261
 31
0.0
  0
ELLIPSE
  5
537
100
AcDbEntity
  8
LE_ALL
100
AcDbEllipse
  6
PHANTOM
 62
     1
 10
819.57382184
 20
-153.45313086
 30
0.0
 11
19.84313483
 21
-22.50000000
 31
0.0
 40
0.88191710
 41
1.56434898
 42
2.33253156
  0
LINE
  5
538
100
AcDbEntity
  8
LE_ALL
100
AcDbLine
  6
PHANTOM
 62
     1
 10
862.06086878
 20
-88.37595087
 30
0.0
 11
842.91710097
 21
-105.25916713
 31
0.0
  0
ARC
  5
539
100
AcDbEntity
  8
LE_ALL
100
AcDbCircle
  6
PHANTOM
 10
861.39689136
 20
-116.56865052
 30
0.0
 40
30.00000000
100
AcDbArc
 50
41.748007213
 51
81.495920673
  0
ARC
  5
53A
100
AcDbEntity
  8
LE_ALL
100
AcDbCircle
  6
PHANTOM
 10
569.23307826
 20
-79.75946998
 30
0.0
 40
30.00000000
100
AcDbArc
 50
84.258795641
 51
90.000000000
  0
ARC
  5
53B
100
AcDbEntity
  8
LE_ALL
100
AcDbCircle
  6
PHANTOM
 10
569.23307826
 20
-79.75946998
 30
0.0
 40
30.00000000
100
AcDbArc
 50
90.000000000
 51
130.617341668
  0
ARC
  5
53C
100
AcDbEntity
  8
LE_ALL
100
AcDbCircle
  6
PHANTOM
 10
506.81718359
 20
-135.07097558
 30
0.0
 40
30.00000000
100
AcDbArc
 50
131.963524757
 51
177.440136489
  0
ELLIPSE
  5
53D
100
AcDbEntity
  8
LE_ALL
100
AcDbEllipse
  6
PHANTOM
 62
     1
 10
841.32877725
 20
-267.27042914
 30
0.0
 11
30.00487512
 21
-0.00887476
 31
0.0
 40
0.33359791
 41
4.35207265
 42
5.92175296
  0
ELLIPSE
  5
53E
100
AcDbEntity
  8
LE_ALL
100
AcDbEllipse
  6
PHANTOM
 62
     1
 10
859.04153663
 20
-159.88096489
 30
0.0
 11
19.84313483
 21
-22.50000000
 31
0.0
 40
0.88191710
 41
0.81772082
 42
1.56434898
  0
LINE
  5
53F
100
AcDbEntity
  8
LE_ALL
100
AcDbLine
  6
PHANTOM
 62
     1
 10
841.71622062
 20
-105.07922409
 30
0.0
 11
838.18068672
 21
-108.19727191
 31
0.0
  0
LINE
  5
540
100
AcDbEntity
  8
LE_ALL
100
AcDbLine
  6
PHANTOM
 62
     1
 10
875.33742799
 20
-107.21287710
 30
0.0
 11
871.80189409
 21
-110.33092492
 31
0.0
  0
ELLIPSE
  5
541
100
AcDbEntity
  8
LE_ALL
100
AcDbEllipse
  6
PHANTOM
 62
     1
 10
862.57707053
 20
-156.76291707
 30
0.0
 11
19.84313483
 21
-22.50000000
 31
0.0
 40
0.88191710
 41
0.81772082
 42
1.56434898
  0
ENDBLK
  5
542
100
AcDbEntity
  8
0
100
AcDbBlockEnd
  0
ENDSEC
  0
SECTION
  2
ENTITIES
  0
INSERT
  5
543
100
AcDbEntity
  8
0
100
AcDbBlockReference
  2
ANS3D02_00001
 10
0.0
 20
0.0
 30
0.0
  0
INSERT
  5
544
100
AcDbEntity
  8
0
100
AcDbBlockReference
  2
ANS3D03_00011
 10
0.0
 20
0.0
 30
0.0
  0
INSERT
  5
545
100
AcDbEntity
  8
0
100
AcDbBlockReference
  2
ANS3D04_00021
 10
0.0
 20
0.0
 30
0.0
  0
INSERT
  5
546
100
AcDbEntity
  8
0
100
AcDbBlockReference
  2
ANS3D05_00031
 10
0.0
 20
0.0
 30
0.0
  0
ENDSEC
  0
SECTION
  2
OBJECTS
  0
DICTIONARY
  5
C
330
0
100
AcDbDictionary
281
     1
  3
ACAD_GROUP
350
D
  3
ACAD_LAYOUT
350
19
  3
ACAD_MLINESTYLE
350
16
  0
DICTIONARY
  5
115
330
1E
100
AcDbDictionary
280
     1
281
     1
  3
ACAD_INDEX
360
116
  0
DICTIONARY
  5
D
100
AcDbDictionary
281
     1
  0
DICTIONARY
  5
19
100
AcDbDictionary
281
     1
  3
Layout1
350
1D
  3
Model
350
21
  0
DICTIONARY
  5
16
100
AcDbDictionary
281
     1
  3
Standard
350
17
  0
DICTIONARY
  5
116
100
AcDbDictionary
281
     1
  3
*A1
350
117
  0
LAYOUT
  5
1D
100
AcDbPlotSettings
  1

  2
C:\Programme\MDT\plotters\DWF Classic.pc3
  4

  6

 40
0.0
 41
0.0
 42
0.0
 43
0.0
 44
0.0
 45
0.0
 46
0.0
 47
0.0
 48
0.0
 49
0.0
140
0.0
141
0.0
142
1.0
143
1.0
 70
   688
 72
     0
 73
     0
 74
     5
  7

 75
    16
147
1.0
148
0.0
149
0.0
100
AcDbLayout
  1
Layout1
 70
     1
 71
     1
 10
0.0
 20
0.0
 11
12.0
 21
9.0
 12
0.0
 22
0.0
 32
0.0
 14
1.000000000000000E+20
 24
1.000000000000000E+20
 34
1.000000000000000E+20
 15
-1.000000000000000E+20
 25
-1.000000000000000E+20
 35
-1.000000000000000E+20
146
0.0
 13
0.0
 23
0.0
 33
0.0
 16
1.0
 26
0.0
 36
0.0
 17
0.0
 27
1.0
 37
0.0
 76
     0
330
1A
  0
LAYOUT
  5
21
100
AcDbPlotSettings
  1

  2
C:\Programme\MDT\plotters\DWF Classic.pc3
  4

  6

 40
0.0
 41
0.0
 42
0.0
 43
0.0
 44
0.0
 45
0.0
 46
0.0
 47
0.0
 48
0.0
 49
0.0
140
0.0
141
0.0
142
1.0
143
1.0
 70
  1712
 72
     0
 73
     0
 74
     0
  7

 75
     0
147
1.0
148
0.0
149
0.0
100
AcDbLayout
  1
Model
 70
     1
 71
     0
 10
0.0
 20
0.0
 11
12.0
 21
9.0
 12
0.0
 22
0.0
 32
0.0
 14
0.0
 24
0.0
 34
0.0
 15
0.0
 25
0.0
 35
0.0
146
0.0
 13
0.0
 23
0.0
 33
0.0
 16
1.0
 26
0.0
 36
0.0
 17
0.0
 27
1.0
 37
0.0
 76
     0
330
1E
  0
MLINESTYLE
  5
17
100
AcDbMlineStyle
  2
STANDARD
 70
     0
  3

 62
   256
 51
90.0
 52
90.0
 71
     2
 49
0.5
 62
   256
  6
BYLAYER
 49
-0.5
 62
   256
  6
BYLAYER
  0
ACDBPLACEHOLDER
  5
F
  0
XRECORD
  5
129
100
AcDbXrecord
280
     1
 90
        0
  0
XRECORD
  5
12A
100
AcDbXrecord
280
     1
  1
{46C4153B-0B27-49FA-99B6-AF3E057D65BC}
  0
XRECORD
  5
122
100
AcDbXrecord
280
     1
  1

  0
XRECORD
  5
128
100
AcDbXrecord
280
     1
 90
        0
  0
XRECORD
  5
124
100
AcDbXrecord
280
     1
340
19
  0
XRECORD
  5
127
100
AcDbXrecord
280
     1
 90
    10781
  0
XRECORD
  5
125
100
AcDbXrecord
280
     1
340
18
  0
XRECORD
  5
126
100
AcDbXrecord
280
     1
340
E
  0
XRECORD
  5
12C
100
AcDbXrecord
280
     1
 40
0.0
  0
XRECORD
  5
12F
100
AcDbXrecord
280
     1
340
0
  0
XRECORD
  5
135
100
AcDbXrecord
280
     1
 10
0.0
 20
0.0
 30
0.0
  0
XRECORD
  5
131
100
AcDbXrecord
280
     1
 10
0.0
 20
0.0
 30
0.0
  0
XRECORD
  5
134
100
AcDbXrecord
280
     1
 10
0.0
 20
0.0
 30
0.0
  0
XRECORD
  5
132
100
AcDbXrecord
280
     1
 10
0.0
 20
0.0
 30
0.0
  0
XRECORD
  5
133
100
AcDbXrecord
280
     1
 10
0.0
 20
0.0
 30
0.0
  0
XRECORD
  5
130
100
AcDbXrecord
280
     1
 10
0.0
 20
0.0
 30
0.0
  0
XRECORD
  5
12D
100
AcDbXrecord
280
     1
340
0
  0
XRECORD
  5
12E
100
AcDbXrecord
280
     1
 70
     0
  0
XRECORD
  5
123
100
AcDbXrecord
280
     1
  1

  0
XRECORD
  5
120
100
AcDbXrecord
280
     1
 90
        1
  0
XRECORD
  5
121
100
AcDbXrecord
280
     1
 90
       70
  0
XRECORD
  5
138
100
AcDbXrecord
280
     1
340
0
  0
XRECORD
  5
13E
100
AcDbXrecord
280
     1
 10
0.0
 20
0.0
 30
0.0
  0
XRECORD
  5
13A
100
AcDbXrecord
280
     1
 10
0.0
 20
0.0
 30
0.0
  0
XRECORD
  5
13D
100
AcDbXrecord
280
     1
 10
0.0
 20
0.0
 30
0.0
  0
XRECORD
  5
13B
100
AcDbXrecord
280
     1
 10
0.0
 20
0.0
 30
0.0
  0
XRECORD
  5
13C
100
AcDbXrecord
280
     1
 10
0.0
 20
0.0
 30
0.0
  0
XRECORD
  5
139
100
AcDbXrecord
280
     1
 10
0.0
 20
0.0
 30
0.0
  0
XRECORD
  5
136
100
AcDbXrecord
280
     1
340
0
  0
XRECORD
  5
137
100
AcDbXrecord
280
     1
 70
     0
  0
XRECORD
  5
12B
100
AcDbXrecord
280
     1
  1
{09700D79-BD6A-4B2C-8A65-8ED4ED61BA28}
  0
DICTIONARYVAR
  5
11D
100
DictionaryVariables
280
     0
  1
1
  0
ENDSEC
  0
EOF
