999
NT  : - 1800
  0
SECTION
  2
HEADER
  9
$ACADVER
  1
AC1015
  9
$DWGCODEPAGE
  3
ANSI_1252
  9
$INSBASE
 10
0.0
 20
0.0
 30
0.0
  9
$EXTMIN
 10
-1881.11413870
 20
-1456.91735484
 30
0.0
  9
$EXTMAX
 10
3870.11981770
 20
1578.34129716
 30
0.0
  9
$LIMMIN
 10
-1881.11413870
 20
-1456.91735484
  9
$LIMMAX
 10
3870.11981770
 20
1578.34129716
  9
$FILLMODE
 70
     1
  9
$QTEXTMODE
 70
     0
  9
$LTSCALE
 40
1.0
  9
$ATTMODE
 70
     1
  9
$TEXTSTYLE
  7
Standard
  9
$LUNITS
 70
     2
  9
$LUPREC
 70
     4
  9
$AUNITS
 70
     0
  9
$AUPREC
 70
     0
  9
$ANGBASE
 50
0.0
  9
$ANGDIR
 70
     0
  9
$HANDSEED
  5
43B
  9
$TILEMODE
 70
     1
  9
$VISRETAIN
 70
     0
  9
$MEASUREMENT
 70
     1
  0
ENDSEC
  0
SECTION
  2
CLASSES
  0
ENDSEC
  0
SECTION
  2
TABLES
  0
TABLE
  2
VPORT
  5
1
100
AcDbSymbolTable
 70
     1
  0
VPORT
  5
2
100
AcDbSymbolTableRecord
100
AcDbViewportTableRecord
  2
*Active
 70
     0
 10
0.0
 20
0.0
 11
1.0
 21
1.0
 12
994.50283950
 22
60.71197116
 13
0.0
 23
0.0
 14
1.0
 24
1.0
 15
0.0
 25
0.0
 16
0.0
 26
0.0
 36
1.0
 17
0.0
 27
0.0
 37
0.0
 40
3035.258652003
 41
1.894808521
 42
50.0
 43
0.0
 44
0.0
 50
0.0
 51
0.0
 71
     0
 72
   100
 73
     1
 74
     1
 75
     0
 76
     0
 77
     0
 78
     0
  0
ENDTAB
  0
TABLE
  2
LTYPE
  5
3
100
AcDbSymbolTable
 70
    21
  0
LTYPE
  5
4
100
AcDbSymbolTableRecord
100
AcDbLinetypeTableRecord
  2
ByBlock
 70
    64
  3

 72
    65
 73
     0
 40
0.0
  0
LTYPE
  5
5
100
AcDbSymbolTableRecord
100
AcDbLinetypeTableRecord
  2
ByLayer
 70
    64
  3

 72
    65
 73
     0
 40
0.0
  0
LTYPE
  5
6
100
AcDbSymbolTableRecord
100
AcDbLinetypeTableRecord
  2
CONTINUOUS
 70
    64
  3
Solid line
 72
    65
 73
     0
 40
0.0
  0
LTYPE
  5
7
100
AcDbSymbolTableRecord
100
AcDbLinetypeTableRecord
  2
DOT
 70
    64
  3
..............
 72
    65
 73
     2
 40
2.000
 49
0.500
 74
     0
 49
-1.500
 74
     0
  0
LTYPE
  5
8
100
AcDbSymbolTableRecord
100
AcDbLinetypeTableRecord
  2
HIDDEN
 70
    64
  3
-- -- -- -- --
 72
    65
 73
     2
 40
7.000
 49
4.000
 74
     0
 49
-3.000
 74
     0
  0
LTYPE
  5
9
100
AcDbSymbolTableRecord
100
AcDbLinetypeTableRecord
  2
DASHDOT
 70
    64
  3
--.--.--.--.--
 72
    65
 73
     4
 40
8.500
 49
4.000
 74
     0
 49
-2.000
 74
     0
 49
0.500
 74
     0
 49
-2.000
 74
     0
  0
LTYPE
  5
A
100
AcDbSymbolTableRecord
100
AcDbLinetypeTableRecord
  2
STRICHPUNKT2
 70
    64
  3
--.--.--.--.--
 72
    65
 73
     4
 40
18.500
 49
10.000
 74
     0
 49
-4.000
 74
     0
 49
0.500
 74
     0
 49
-4.000
 74
     0
  0
LTYPE
  5
B
100
AcDbSymbolTableRecord
100
AcDbLinetypeTableRecord
  2
STRICHPUNKT3
 70
    64
  3
--.--.--.--.--
 72
    65
 73
     4
 40
35.500
 49
25.000
 74
     0
 49
-5.000
 74
     0
 49
0.500
 74
     0
 49
-5.000
 74
     0
  0
LTYPE
  5
13F
100
AcDbSymbolTableRecord
100
AcDbLinetypeTableRecord
  2
PHANTOM
 70
    64
  3
--..--..--..--
 72
    65
 73
     6
 40
23.000
 49
10.000
 74
     0
 49
-4.000
 74
     0
 49
0.500
 74
     0
 49
-4.000
 74
     0
 49
0.500
 74
     0
 49
-4.000
 74
     0
  0
LTYPE
  5
140
100
AcDbSymbolTableRecord
100
AcDbLinetypeTableRecord
  2
PHANTOM2
 70
    64
  3
--..--..--..--
 72
    65
 73
     6
 40
33.000
 49
20.000
 74
     0
 49
-4.000
 74
     0
 49
0.500
 74
     0
 49
-4.000
 74
     0
 49
0.500
 74
     0
 49
-4.000
 74
     0
  0
LTYPE
  5
141
100
AcDbSymbolTableRecord
100
AcDbLinetypeTableRecord
  2
PHANTOM3
 70
    64
  3
--..--..--..--
 72
    65
 73
     6
 40
50.000
 49
37.000
 74
     0
 49
-4.000
 74
     0
 49
0.500
 74
     0
 49
-4.000
 74
     0
 49
0.500
 74
     0
 49
-4.000
 74
     0
  0
LTYPE
  5
142
100
AcDbSymbolTableRecord
100
AcDbLinetypeTableRecord
  2
STR3PKT
 70
    64
  3
--...--...--...
 72
    65
 73
     8
 40
31.500
 49
20.000
 74
     0
 49
-2.500
 74
     0
 49
0.500
 74
     0
 49
-2.500
 74
     0
 49
0.500
 74
     0
 49
-2.500
 74
     0
 49
0.500
 74
     0
 49
-2.500
 74
     0
  0
LTYPE
  5
143
100
AcDbSymbolTableRecord
100
AcDbLinetypeTableRecord
  2
2STRPKT
 70
    64
  3
--.--.--.--.--
 72
    65
 73
     6
 40
28.000
 49
10.000
 74
     0
 49
-2.500
 74
     0
 49
10.000
 74
     0
 49
-2.500
 74
     0
 49
0.500
 74
     0
 49
-2.500
 74
     0
  0
LTYPE
  5
144
100
AcDbSymbolTableRecord
100
AcDbLinetypeTableRecord
  2
GESTRICHELT2
 70
    64
  3
-- -- -- -- --
 72
    65
 73
     2
 40
25.000
 49
10.000
 74
     0
 49
-15.000
 74
     0
  0
LTYPE
  5
145
100
AcDbSymbolTableRecord
100
AcDbLinetypeTableRecord
  2
2STR2PKT
 70
    64
  3
--..--..--..--
 72
    65
 73
     8
 40
31.000
 49
10.000
 74
     0
 49
-2.500
 74
     0
 49
10.000
 74
     0
 49
-2.500
 74
     0
 49
0.500
 74
     0
 49
-2.500
 74
     0
 49
0.500
 74
     0
 49
-2.500
 74
     0
  0
LTYPE
  5
146
100
AcDbSymbolTableRecord
100
AcDbLinetypeTableRecord
  2
STR3PKT2
 70
    64
  3
--...--...--...
 72
    65
 73
     8
 40
21.000
 49
10.000
 74
     0
 49
-2.500
 74
     0
 49
0.500
 74
     0
 49
-2.500
 74
     0
 49
0.500
 74
     0
 49
-2.500
 74
     0
 49
0.500
 74
     0
 49
-2.000
 74
     0
  0
LTYPE
  5
147
100
AcDbSymbolTableRecord
100
AcDbLinetypeTableRecord
  2
2STR3PKT
 70
    64
  3
--...--...--...
 72
    65
 73
    10
 40
34.000
 49
10.000
 74
     0
 49
-2.500
 74
     0
 49
10.000
 74
     0
 49
-2.500
 74
     0
 49
0.500
 74
     0
 49
-2.500
 74
     0
 49
0.500
 74
     0
 49
-2.500
 74
     0
 49
0.500
 74
     0
 49
-2.500
 74
     0
  0
LTYPE
  5
148
100
AcDbSymbolTableRecord
100
AcDbLinetypeTableRecord
  2
STRKSTR
 70
    64
  3
-- - -- - -- -
 72
    65
 73
     4
 40
30.000
 49
20.000
 74
     0
 49
-2.500
 74
     0
 49
5.000
 74
     0
 49
-2.500
 74
     0
  0
LTYPE
  5
149
100
AcDbSymbolTableRecord
100
AcDbLinetypeTableRecord
  2
STRKSTR2
 70
    64
  3
-- - -- - -- -
 72
    65
 73
     6
 40
37.500
 49
20.000
 74
     0
 49
-2.500
 74
     0
 49
5.000
 74
     0
 49
-2.500
 74
     0
 49
5.000
 74
     0
 49
-2.500
 74
     0
  0
LTYPE
  5
14A
100
AcDbSymbolTableRecord
100
AcDbLinetypeTableRecord
  2
STRKSTR3
 70
    64
  3
-- - -- - -- -
 72
    65
 73
     8
 40
45.000
 49
20.000
 74
     0
 49
-2.500
 74
     0
 49
5.000
 74
     0
 49
-2.500
 74
     0
 49
5.000
 74
     0
 49
-2.500
 74
     0
 49
5.000
 74
     0
 49
-2.500
 74
     0
  0
LTYPE
  5
14B
100
AcDbSymbolTableRecord
100
AcDbLinetypeTableRecord
  2
PUNKT2
 70
    64
  3
..............
 72
    65
 73
     2
 40
3.500
 49
0.500
 74
     0
 49
-3.000
 74
     0
  0
ENDTAB
  0
TABLE
  2
LAYER
  5
14C
100
AcDbSymbolTable
 70
    14
  0
LAYER
  5
14D
100
AcDbSymbolTableRecord
100
AcDbLayerTableRecord
  2
0
 70
    64
 62
     7
  6
CONTINUOUS
370
    -3
390
F
  0
LAYER
  5
14E
100
AcDbSymbolTableRecord
100
AcDbLayerTableRecord
  2
LE_GREEN
 70
    64
 62
     3
  6
CONTINUOUS
370
    -3
390
F
  0
LAYER
  5
14F
100
AcDbSymbolTableRecord
100
AcDbLayerTableRecord
  2
LE_RED
 70
    64
 62
     1
  6
CONTINUOUS
370
    -3
390
F
  0
LAYER
  5
150
100
AcDbSymbolTableRecord
100
AcDbLayerTableRecord
  2
LE_ALL
 70
    64
 62
     7
  6
CONTINUOUS
370
    50
390
F
  0
LAYER
  5
151
100
AcDbSymbolTableRecord
100
AcDbLayerTableRecord
  2
LE_HIDDEN1
 70
    64
 62
     3
  6
HIDDEN
370
    -3
390
F
  0
LAYER
  5
152
100
AcDbSymbolTableRecord
100
AcDbLayerTableRecord
  2
LE_HIDDEN
 70
    64
 62
     7
  6
CONTINUOUS
370
    -3
390
F
  0
LAYER
  5
153
100
AcDbSymbolTableRecord
100
AcDbLayerTableRecord
  2
LE_MIDDLE
 70
    64
 62
     7
  6
CONTINUOUS
370
    -3
390
F
  0
LAYER
  5
154
100
AcDbSymbolTableRecord
100
AcDbLayerTableRecord
  2
TXT_YELLOW
 70
    64
 62
     2
  6
CONTINUOUS
370
    -3
390
F
  0
LAYER
  5
155
100
AcDbSymbolTableRecord
100
AcDbLayerTableRecord
  2
TXT_DIM49
 70
    64
 62
     2
  6
CONTINUOUS
370
    -3
390
F
  0
LAYER
  5
156
100
AcDbSymbolTableRecord
100
AcDbLayerTableRecord
  2
TXT_ALL
 70
    64
 62
     7
  6
CONTINUOUS
370
    -3
390
F
  0
LAYER
  5
157
100
AcDbSymbolTableRecord
100
AcDbLayerTableRecord
  2
DIM49
 70
    64
 62
     4
  6
CONTINUOUS
370
    -3
390
F
  0
LAYER
  5
158
100
AcDbSymbolTableRecord
100
AcDbLayerTableRecord
  2
HATCH
 70
    64
 62
     3
  6
CONTINUOUS
370
    -3
390
F
  0
LAYER
  5
159
100
AcDbSymbolTableRecord
100
AcDbLayerTableRecord
  2
1
 70
    64
 62
     7
  6
CONTINUOUS
370
    -3
390
F
  0
LAYER
  5
15A
100
AcDbSymbolTableRecord
100
AcDbLayerTableRecord
  2
49
 70
    64
 62
     7
  6
CONTINUOUS
370
    -3
390
F
  0
ENDTAB
  0
TABLE
  2
STYLE
  5
15B
100
AcDbSymbolTable
 70
     2
  0
STYLE
  5
15C
100
AcDbSymbolTableRecord
100
AcDbTextStyleTableRecord
  2
MONOTXT
 70
     0
 40
0.0
 41
1.000
 50
0.0
 71
     0
 42
1.000
  3
monotxt.shx
  4

  0
STYLE
  5
15D
100
AcDbSymbolTableRecord
100
AcDbTextStyleTableRecord
  2
STANDARD
 70
     0
 40
0.0
 41
1.000
 50
0.0
 71
     0
 42
1.000
  3
txt
  4

  0
ENDTAB
  0
TABLE
  2
VIEW
  5
15E
100
AcDbSymbolTable
 70
     0
  0
ENDTAB
  0
TABLE
  2
UCS
  5
15F
100
AcDbSymbolTable
 70
     0
  0
ENDTAB
  0
TABLE
  2
APPID
  5
160
100
AcDbSymbolTable
 70
     1
  0
APPID
  5
161
100
AcDbSymbolTableRecord
100
AcDbRegAppTableRecord
  2
ACAD
 70
     0
  0
ENDTAB
  0
TABLE
  2
DIMSTYLE
  5
162
100
AcDbSymbolTable
100
AcDbDimStyleTable
 70
     0
  0
ENDTAB
  0
TABLE
  2
BLOCK_RECORD
  5
163
100
AcDbSymbolTable
 70
    89
  0
BLOCK_RECORD
  5
1E
100
AcDbSymbolTableRecord
100
AcDbBlockTableRecord
  2
*Model_Space
  0
BLOCK_RECORD
  5
1A
100
AcDbSymbolTableRecord
100
AcDbBlockTableRecord
  2
*Paper_Space
  0
BLOCK_RECORD
  5
164
100
AcDbSymbolTableRecord
100
AcDbBlockTableRecord
  2
ANS3D02_00001
  0
BLOCK_RECORD
  5
165
100
AcDbSymbolTableRecord
100
AcDbBlockTableRecord
  2
FIG3D02_00002
  0
BLOCK_RECORD
  5
166
100
AcDbSymbolTableRecord
100
AcDbBlockTableRecord
  2
JR80_00003
  0
BLOCK_RECORD
  5
167
100
AcDbSymbolTableRecord
100
AcDbBlockTableRecord
  2
GEHÄUSE_00004
  0
BLOCK_RECORD
  5
168
100
AcDbSymbolTableRecord
100
AcDbBlockTableRecord
  2
_GEHÄUSE_00005
  0
BLOCK_RECORD
  5
169
100
AcDbSymbolTableRecord
100
AcDbBlockTableRecord
  2
FLIEHGEWICHT_00006
  0
BLOCK_RECORD
  5
16A
100
AcDbSymbolTableRecord
100
AcDbBlockTableRecord
  2
FLIEHGEWICHT_00007
  0
BLOCK_RECORD
  5
16B
100
AcDbSymbolTableRecord
100
AcDbBlockTableRecord
  2
FLIEHGEWICHT_00008
  0
BLOCK_RECORD
  5
16C
100
AcDbSymbolTableRecord
100
AcDbBlockTableRecord
  2
_FLIEHGEWICHT_00009
  0
BLOCK_RECORD
  5
16D
100
AcDbSymbolTableRecord
100
AcDbBlockTableRecord
  2
SCHUTZHAUBE_00010
  0
BLOCK_RECORD
  5
16E
100
AcDbSymbolTableRecord
100
AcDbBlockTableRecord
  2
SCHUTZHAUBE_00011
  0
BLOCK_RECORD
  5
16F
100
AcDbSymbolTableRecord
100
AcDbBlockTableRecord
  2
_SCHUTZHAUBE_00012
  0
BLOCK_RECORD
  5
170
100
AcDbSymbolTableRecord
100
AcDbBlockTableRecord
  2
ANSCHLUßFLANSCH_00013
  0
BLOCK_RECORD
  5
171
100
AcDbSymbolTableRecord
100
AcDbBlockTableRecord
  2
_ANSCHLUßFLANSCH_00014
  0
BLOCK_RECORD
  5
172
100
AcDbSymbolTableRecord
100
AcDbBlockTableRecord
  2
ANS3D03_00015
  0
BLOCK_RECORD
  5
173
100
AcDbSymbolTableRecord
100
AcDbBlockTableRecord
  2
FIG3D03_00016
  0
BLOCK_RECORD
  5
174
100
AcDbSymbolTableRecord
100
AcDbBlockTableRecord
  2
JR80_00017
  0
BLOCK_RECORD
  5
175
100
AcDbSymbolTableRecord
100
AcDbBlockTableRecord
  2
GEHÄUSE_00018
  0
BLOCK_RECORD
  5
176
100
AcDbSymbolTableRecord
100
AcDbBlockTableRecord
  2
_GEHÄUSE_00019
  0
BLOCK_RECORD
  5
177
100
AcDbSymbolTableRecord
100
AcDbBlockTableRecord
  2
SCHUTZHAUBE_00020
  0
BLOCK_RECORD
  5
178
100
AcDbSymbolTableRecord
100
AcDbBlockTableRecord
  2
SCHUTZHAUBE_00021
  0
BLOCK_RECORD
  5
179
100
AcDbSymbolTableRecord
100
AcDbBlockTableRecord
  2
_SCHUTZHAUBE_00022
  0
BLOCK_RECORD
  5
17A
100
AcDbSymbolTableRecord
100
AcDbBlockTableRecord
  2
SCHUTZHAUBE_00023
  0
BLOCK_RECORD
  5
17B
100
AcDbSymbolTableRecord
100
AcDbBlockTableRecord
  2
_SCHUTZHAUBE_00024
  0
BLOCK_RECORD
  5
17C
100
AcDbSymbolTableRecord
100
AcDbBlockTableRecord
  2
ANS3D04_00025
  0
BLOCK_RECORD
  5
17D
100
AcDbSymbolTableRecord
100
AcDbBlockTableRecord
  2
FIG3D04_00026
  0
BLOCK_RECORD
  5
17E
100
AcDbSymbolTableRecord
100
AcDbBlockTableRecord
  2
JR80_00027
  0
BLOCK_RECORD
  5
17F
100
AcDbSymbolTableRecord
100
AcDbBlockTableRecord
  2
GEHÄUSE_00028
  0
BLOCK_RECORD
  5
180
100
AcDbSymbolTableRecord
100
AcDbBlockTableRecord
  2
_GEHÄUSE_00029
  0
BLOCK_RECORD
  5
181
100
AcDbSymbolTableRecord
100
AcDbBlockTableRecord
  2
SCHUTZHAUBE_00030
  0
BLOCK_RECORD
  5
182
100
AcDbSymbolTableRecord
100
AcDbBlockTableRecord
  2
SCHUTZHAUBE_00031
  0
BLOCK_RECORD
  5
183
100
AcDbSymbolTableRecord
100
AcDbBlockTableRecord
  2
_SCHUTZHAUBE_00032
  0
BLOCK_RECORD
  5
184
100
AcDbSymbolTableRecord
100
AcDbBlockTableRecord
  2
SCHUTZHAUBE_00033
  0
BLOCK_RECORD
  5
185
100
AcDbSymbolTableRecord
100
AcDbBlockTableRecord
  2
_SCHUTZHAUBE_00034
  0
BLOCK_RECORD
  5
186
100
AcDbSymbolTableRecord
100
AcDbBlockTableRecord
  2
ANS3D05_00035
  0
BLOCK_RECORD
  5
187
100
AcDbSymbolTableRecord
100
AcDbBlockTableRecord
  2
FIG3D05_00036
  0
BLOCK_RECORD
  5
188
100
AcDbSymbolTableRecord
100
AcDbBlockTableRecord
  2
JR80_00037
  0
BLOCK_RECORD
  5
189
100
AcDbSymbolTableRecord
100
AcDbBlockTableRecord
  2
GEHÄUSE_00038
  0
BLOCK_RECORD
  5
18A
100
AcDbSymbolTableRecord
100
AcDbBlockTableRecord
  2
_GEHÄUSE_00039
  0
BLOCK_RECORD
  5
18B
100
AcDbSymbolTableRecord
100
AcDbBlockTableRecord
  2
FLIEHGEWICHT_00040
  0
BLOCK_RECORD
  5
18C
100
AcDbSymbolTableRecord
100
AcDbBlockTableRecord
  2
FLIEHGEWICHT_00041
  0
BLOCK_RECORD
  5
18D
100
AcDbSymbolTableRecord
100
AcDbBlockTableRecord
  2
FLIEHGEWICHT_00042
  0
BLOCK_RECORD
  5
18E
100
AcDbSymbolTableRecord
100
AcDbBlockTableRecord
  2
_FLIEHGEWICHT_00043
  0
BLOCK_RECORD
  5
18F
100
AcDbSymbolTableRecord
100
AcDbBlockTableRecord
  2
FLIEHGEWICHT_00044
  0
BLOCK_RECORD
  5
190
100
AcDbSymbolTableRecord
100
AcDbBlockTableRecord
  2
FLIEHGEWICHT_00045
  0
BLOCK_RECORD
  5
191
100
AcDbSymbolTableRecord
100
AcDbBlockTableRecord
  2
_FLIEHGEWICHT_00046
  0
BLOCK_RECORD
  5
192
100
AcDbSymbolTableRecord
100
AcDbBlockTableRecord
  2
FLIEHGEWICHT_00047
  0
BLOCK_RECORD
  5
193
100
AcDbSymbolTableRecord
100
AcDbBlockTableRecord
  2
_FLIEHGEWICHT_00048
  0
BLOCK_RECORD
  5
194
100
AcDbSymbolTableRecord
100
AcDbBlockTableRecord
  2
SCHUTZHAUBE_00049
  0
BLOCK_RECORD
  5
195
100
AcDbSymbolTableRecord
100
AcDbBlockTableRecord
  2
SCHUTZHAUBE_00050
  0
BLOCK_RECORD
  5
196
100
AcDbSymbolTableRecord
100
AcDbBlockTableRecord
  2
_SCHUTZHAUBE_00051
  0
BLOCK_RECORD
  5
197
100
AcDbSymbolTableRecord
100
AcDbBlockTableRecord
  2
SCHUTZHAUBE_00052
  0
BLOCK_RECORD
  5
198
100
AcDbSymbolTableRecord
100
AcDbBlockTableRecord
  2
_SCHUTZHAUBE_00053
  0
BLOCK_RECORD
  5
199
100
AcDbSymbolTableRecord
100
AcDbBlockTableRecord
  2
ANSCHLUßFLANSCH_00054
  0
BLOCK_RECORD
  5
19A
100
AcDbSymbolTableRecord
100
AcDbBlockTableRecord
  2
_ANSCHLUßFLANSCH_00055
  0
BLOCK_RECORD
  5
19B
100
AcDbSymbolTableRecord
100
AcDbBlockTableRecord
  2
ANS3D06_00056
  0
BLOCK_RECORD
  5
19C
100
AcDbSymbolTableRecord
100
AcDbBlockTableRecord
  2
FIG3D06_00057
  0
BLOCK_RECORD
  5
19D
100
AcDbSymbolTableRecord
100
AcDbBlockTableRecord
  2
JR80_00058
  0
BLOCK_RECORD
  5
19E
100
AcDbSymbolTableRecord
100
AcDbBlockTableRecord
  2
GEHÄUSE_00059
  0
BLOCK_RECORD
  5
19F
100
AcDbSymbolTableRecord
100
AcDbBlockTableRecord
  2
_GEHÄUSE_00060
  0
BLOCK_RECORD
  5
1A0
100
AcDbSymbolTableRecord
100
AcDbBlockTableRecord
  2
WELLE_00061
  0
BLOCK_RECORD
  5
1A1
100
AcDbSymbolTableRecord
100
AcDbBlockTableRecord
  2
WELLE_00062
  0
BLOCK_RECORD
  5
1A2
100
AcDbSymbolTableRecord
100
AcDbBlockTableRecord
  2
_WELLE_00063
  0
BLOCK_RECORD
  5
1A3
100
AcDbSymbolTableRecord
100
AcDbBlockTableRecord
  2
WELLE_00064
  0
BLOCK_RECORD
  5
1A4
100
AcDbSymbolTableRecord
100
AcDbBlockTableRecord
  2
_WELLE_00065
  0
BLOCK_RECORD
  5
1A5
100
AcDbSymbolTableRecord
100
AcDbBlockTableRecord
  2
WELLE_00066
  0
BLOCK_RECORD
  5
1A6
100
AcDbSymbolTableRecord
100
AcDbBlockTableRecord
  2
_WELLE_00067
  0
BLOCK_RECORD
  5
1A7
100
AcDbSymbolTableRecord
100
AcDbBlockTableRecord
  2
WELLE_00068
  0
BLOCK_RECORD
  5
1A8
100
AcDbSymbolTableRecord
100
AcDbBlockTableRecord
  2
_WELLE_00069
  0
BLOCK_RECORD
  5
1A9
100
AcDbSymbolTableRecord
100
AcDbBlockTableRecord
  2
FLIEHGEWICHT_00070
  0
BLOCK_RECORD
  5
1AA
100
AcDbSymbolTableRecord
100
AcDbBlockTableRecord
  2
FLIEHGEWICHT_00071
  0
BLOCK_RECORD
  5
1AB
100
AcDbSymbolTableRecord
100
AcDbBlockTableRecord
  2
FLIEHGEWICHT_00072
  0
BLOCK_RECORD
  5
1AC
100
AcDbSymbolTableRecord
100
AcDbBlockTableRecord
  2
_FLIEHGEWICHT_00073
  0
BLOCK_RECORD
  5
1AD
100
AcDbSymbolTableRecord
100
AcDbBlockTableRecord
  2
FLIEHGEWICHT_00074
  0
BLOCK_RECORD
  5
1AE
100
AcDbSymbolTableRecord
100
AcDbBlockTableRecord
  2
_FLIEHGEWICHT_00075
  0
BLOCK_RECORD
  5
1AF
100
AcDbSymbolTableRecord
100
AcDbBlockTableRecord
  2
FLIEHGEWICHT_00076
  0
BLOCK_RECORD
  5
1B0
100
AcDbSymbolTableRecord
100
AcDbBlockTableRecord
  2
FLIEHGEWICHT_00077
  0
BLOCK_RECORD
  5
1B1
100
AcDbSymbolTableRecord
100
AcDbBlockTableRecord
  2
_FLIEHGEWICHT_00078
  0
BLOCK_RECORD
  5
1B2
100
AcDbSymbolTableRecord
100
AcDbBlockTableRecord
  2
FLIEHGEWICHT_00079
  0
BLOCK_RECORD
  5
1B3
100
AcDbSymbolTableRecord
100
AcDbBlockTableRecord
  2
_FLIEHGEWICHT_00080
  0
BLOCK_RECORD
  5
1B4
100
AcDbSymbolTableRecord
100
AcDbBlockTableRecord
  2
SCHUTZHAUBE_00081
  0
BLOCK_RECORD
  5
1B5
100
AcDbSymbolTableRecord
100
AcDbBlockTableRecord
  2
SCHUTZHAUBE_00082
  0
BLOCK_RECORD
  5
1B6
100
AcDbSymbolTableRecord
100
AcDbBlockTableRecord
  2
_SCHUTZHAUBE_00083
  0
BLOCK_RECORD
  5
1B7
100
AcDbSymbolTableRecord
100
AcDbBlockTableRecord
  2
SCHUTZHAUBE_00084
  0
BLOCK_RECORD
  5
1B8
100
AcDbSymbolTableRecord
100
AcDbBlockTableRecord
  2
_SCHUTZHAUBE_00085
  0
BLOCK_RECORD
  5
1B9
100
AcDbSymbolTableRecord
100
AcDbBlockTableRecord
  2
ANSCHLUßFLANSCH_00086
  0
BLOCK_RECORD
  5
1BA
100
AcDbSymbolTableRecord
100
AcDbBlockTableRecord
  2
_ANSCHLUßFLANSCH_00087
  0
ENDTAB
  0
ENDSEC
  0
SECTION
  2
BLOCKS
  0
BLOCK
  5
1BB
100
AcDbEntity
  8
0
100
AcDbBlockBegin
  2
*Model_Space
 70
     0
 10
0.0
 20
0.0
 30
0.0
  3
*Model_Space
  1

  0
ENDBLK
  5
1BC
100
AcDbEntity
  8
0
100
AcDbBlockEnd
  0
BLOCK
  5
1BD
100
AcDbEntity
100
AcDbBlockBegin
 67
     1
  8
0
  2
*Paper_Space
 70
     0
 10
0.0
 20
0.0
 30
0.0
  3
*Paper_Space
  1

  0
ENDBLK
  5
1BE
100
AcDbEntity
100
AcDbBlockEnd
 67
     1
  8
0
  0
BLOCK
  5
1BF
100
AcDbEntity
  8
0
100
AcDbBlockBegin
  2
ANS3D02_00001
 70
    64
 10
0.0
 20
0.0
 30
0.0
  3
ANS3D02_00001
  0
INSERT
  5
1C0
100
AcDbEntity
  8
0
100
AcDbBlockReference
  2
FIG3D02_00002
 10
0.0
 20
0.0
 30
0.0
  0
ENDBLK
  5
1C1
100
AcDbEntity
  8
0
100
AcDbBlockEnd
  0
BLOCK
  5
1C2
100
AcDbEntity
  8
0
100
AcDbBlockBegin
  2
FIG3D02_00002
 70
    64
 10
0.0
 20
0.0
 30
0.0
  3
FIG3D02_00002
  0
INSERT
  5
1C3
100
AcDbEntity
  8
0
100
AcDbBlockReference
  2
JR80_00003
 10
0.0
 20
0.0
 30
0.0
  0
ENDBLK
  5
1C4
100
AcDbEntity
  8
0
100
AcDbBlockEnd
  0
BLOCK
  5
1C5
100
AcDbEntity
  8
0
100
AcDbBlockBegin
  2
JR80_00003
 70
    64
 10
0.0
 20
0.0
 30
0.0
  3
JR80_00003
  0
INSERT
  5
1C6
100
AcDbEntity
  8
0
100
AcDbBlockReference
  2
GEHÄUSE_00004
 10
0.0
 20
0.0
 30
0.0
  0
INSERT
  5
1C7
100
AcDbEntity
  8
0
100
AcDbBlockReference
  2
FLIEHGEWICHT_00006
 10
0.0
 20
0.0
 30
0.0
  0
INSERT
  5
1C8
100
AcDbEntity
  8
0
100
AcDbBlockReference
  2
SCHUTZHAUBE_00010
 10
0.0
 20
0.0
 30
0.0
  0
INSERT
  5
1C9
100
AcDbEntity
  8
0
100
AcDbBlockReference
  2
ANSCHLUßFLANSCH_00013
 10
0.0
 20
0.0
 30
0.0
  0
ENDBLK
  5
1CA
100
AcDbEntity
  8
0
100
AcDbBlockEnd
  0
BLOCK
  5
1CB
100
AcDbEntity
  8
0
100
AcDbBlockBegin
  2
GEHÄUSE_00004
 70
    64
 10
0.0
 20
0.0
 30
0.0
  3
GEHÄUSE_00004
  0
INSERT
  5
1CC
100
AcDbEntity
  8
0
100
AcDbBlockReference
  2
_GEHÄUSE_00005
 10
585.74588175
 20
-197.22989533
 30
0.0
  0
ENDBLK
  5
1CD
100
AcDbEntity
  8
0
100
AcDbBlockEnd
  0
BLOCK
  5
1CE
100
AcDbEntity
  8
0
100
AcDbBlockBegin
  2
_GEHÄUSE_00005
 70
    64
 10
585.74588175
 20
-197.22989533
 30
0.0
  3
_GEHÄUSE_00005
  0
LINE
  5
1CF
100
AcDbEntity
  8
0
100
AcDbLine
 10
585.74588175
 20
-197.22989533
 30
0.0
 11
585.74588175
 21
-187.22989533
 31
0.0
  0
LINE
  5
1D0
100
AcDbEntity
  8
0
100
AcDbLine
 10
-189.25411825
 20
-197.22989533
 30
0.0
 11
585.74588175
 21
-197.22989533
 31
0.0
  0
LINE
  5
1D1
100
AcDbEntity
  8
0
100
AcDbLine
 10
-189.25411825
 20
-197.22989533
 30
0.0
 11
-189.25411825
 21
-187.22989533
 31
0.0
  0
ENDBLK
  5
1D2
100
AcDbEntity
  8
0
100
AcDbBlockEnd
  0
BLOCK
  5
1D3
100
AcDbEntity
  8
0
100
AcDbBlockBegin
  2
FLIEHGEWICHT_00006
 70
    64
 10
0.0
 20
0.0
 30
0.0
  3
FLIEHGEWICHT_00006
  0
INSERT
  5
1D4
100
AcDbEntity
  8
0
100
AcDbBlockReference
  2
FLIEHGEWICHT_00007
 10
0.0
 20
0.0
 30
0.0
  0
ENDBLK
  5
1D5
100
AcDbEntity
  8
0
100
AcDbBlockEnd
  0
BLOCK
  5
1D6
100
AcDbEntity
  8
0
100
AcDbBlockBegin
  2
FLIEHGEWICHT_00007
 70
    64
 10
0.0
 20
0.0
 30
0.0
  3
FLIEHGEWICHT_00007
  0
INSERT
  5
1D7
100
AcDbEntity
  8
0
100
AcDbBlockReference
  2
FLIEHGEWICHT_00008
 10
0.0
 20
0.0
 30
0.0
  0
ENDBLK
  5
1D8
100
AcDbEntity
  8
0
100
AcDbBlockEnd
  0
BLOCK
  5
1D9
100
AcDbEntity
  8
0
100
AcDbBlockBegin
  2
FLIEHGEWICHT_00008
 70
    64
 10
0.0
 20
0.0
 30
0.0
  3
FLIEHGEWICHT_00008
  0
INSERT
  5
1DA
100
AcDbEntity
  8
0
100
AcDbBlockReference
  2
_FLIEHGEWICHT_00009
 10
66.67180768
 20
32.95402203
 30
0.0
  0
ENDBLK
  5
1DB
100
AcDbEntity
  8
0
100
AcDbBlockEnd
  0
BLOCK
  5
1DC
100
AcDbEntity
  8
0
100
AcDbBlockBegin
  2
_FLIEHGEWICHT_00009
 70
    64
 10
66.67180768
 20
32.95402203
 30
0.0
  3
_FLIEHGEWICHT_00009
  0
ARC
  5
1DD
100
AcDbEntity
  8
0
100
AcDbCircle
 10
-126.75411825
 20
137.77010467
 30
0.0
 40
220.00000000
100
AcDbArc
 50
-28.452937264
 51
-24.692233042
  0
ARC
  5
1DE
100
AcDbEntity
  8
0
100
AcDbCircle
 10
-126.75411825
 20
137.77010467
 30
0.0
 40
220.00000000
100
AcDbArc
 50
-9.798978742
 51
-9.082627356
  0
ARC
  5
1DF
100
AcDbEntity
  8
0
100
AcDbCircle
 10
-126.75411825
 20
137.77010467
 30
0.0
 40
220.00000000
100
AcDbArc
 50
9.082627356
 51
9.798978742
  0
ARC
  5
1E0
100
AcDbEntity
  8
0
100
AcDbCircle
 10
-126.75411825
 20
137.77010467
 30
0.0
 40
220.00000000
100
AcDbArc
 50
24.692233042
 51
28.452937264
  0
ENDBLK
  5
1E1
100
AcDbEntity
  8
0
100
AcDbBlockEnd
  0
BLOCK
  5
1E2
100
AcDbEntity
  8
0
100
AcDbBlockBegin
  2
SCHUTZHAUBE_00010
 70
    64
 10
0.0
 20
0.0
 30
0.0
  3
SCHUTZHAUBE_00010
  0
INSERT
  5
1E3
100
AcDbEntity
  8
0
100
AcDbBlockReference
  2
SCHUTZHAUBE_00011
 10
0.0
 20
0.0
 30
0.0
  0
ENDBLK
  5
1E4
100
AcDbEntity
  8
0
100
AcDbBlockEnd
  0
BLOCK
  5
1E5
100
AcDbEntity
  8
0
100
AcDbBlockBegin
  2
SCHUTZHAUBE_00011
 70
    64
 10
0.0
 20
0.0
 30
0.0
  3
SCHUTZHAUBE_00011
  0
INSERT
  5
1E6
100
AcDbEntity
  8
0
100
AcDbBlockReference
  2
_SCHUTZHAUBE_00012
 10
8.24588175
 20
257.77010467
 30
0.0
  0
ENDBLK
  5
1E7
100
AcDbEntity
  8
0
100
AcDbBlockEnd
  0
BLOCK
  5
1E8
100
AcDbEntity
  8
0
100
AcDbBlockBegin
  2
_SCHUTZHAUBE_00012
 70
    64
 10
8.24588175
 20
257.77010467
 30
0.0
  3
_SCHUTZHAUBE_00012
  0
CIRCLE
  5
1E9
100
AcDbEntity
  8
0
100
AcDbCircle
 10
8.24588175
 20
137.77010467
 30
0.0
 40
120.00000000
  0
POLYLINE
  5
1EA
100
AcDbEntity
  8
0
100
AcDb2dPolyline
 66
     1
  0
VERTEX
  5
1EB
100
AcDbEntity
  8
0
100
AcDbVertex
100
AcDb2dVertex
 10
-316.75411825
 20
266.59853179
 30
0.0
  0
VERTEX
  5
1EC
100
AcDbEntity
  8
0
100
AcDbVertex
100
AcDb2dVertex
 10
-316.75411825
 20
-187.22989533
 30
0.0
  0
VERTEX
  5
1ED
100
AcDbEntity
  8
0
100
AcDbVertex
100
AcDb2dVertex
 10
713.24588175
 20
-187.22989533
 30
0.0
  0
VERTEX
  5
1EE
100
AcDbEntity
  8
0
100
AcDbVertex
100
AcDb2dVertex
 10
713.24588175
 20
266.59853179
 30
0.0
  0
VERTEX
  5
1EF
100
AcDbEntity
  8
0
100
AcDbVertex
100
AcDb2dVertex
 10
512.07430888
 20
467.77010467
 30
0.0
  0
VERTEX
  5
1F0
100
AcDbEntity
  8
0
100
AcDbVertex
100
AcDb2dVertex
 10
-115.58254537
 20
467.77010467
 30
0.0
  0
VERTEX
  5
1F1
100
AcDbEntity
  8
0
100
AcDbVertex
100
AcDb2dVertex
 10
-316.75411825
 20
266.59853179
 30
0.0
  0
SEQEND
  5
1F2
100
AcDbEntity
  8
0
  0
ENDBLK
  5
1F3
100
AcDbEntity
  8
0
100
AcDbBlockEnd
  0
BLOCK
  5
1F4
100
AcDbEntity
  8
0
100
AcDbBlockBegin
  2
ANSCHLUßFLANSCH_00013
 70
    64
 10
0.0
 20
0.0
 30
0.0
  3
ANSCHLUßFLANSCH_00013
  0
INSERT
  5
1F5
100
AcDbEntity
  8
0
100
AcDbBlockReference
  2
_ANSCHLUßFLANSCH_00014
 10
-82.29431243
 20
109.01712830
 30
0.0
  0
ENDBLK
  5
1F6
100
AcDbEntity
  8
0
100
AcDbBlockEnd
  0
BLOCK
  5
1F7
100
AcDbEntity
  8
0
100
AcDbBlockBegin
  2
_ANSCHLUßFLANSCH_00014
 70
    64
 10
-82.29431243
 20
109.01712830
 30
0.0
  3
_ANSCHLUßFLANSCH_00014
  0
CIRCLE
  5
1F8
100
AcDbEntity
  8
0
100
AcDbCircle
 10
-82.29431243
 20
100.26712830
 30
0.0
 40
8.75000000
  0
CIRCLE
  5
1F9
100
AcDbEntity
  8
0
100
AcDbCircle
 10
-29.25709462
 20
47.22991048
 30
0.0
 40
8.75000000
  0
CIRCLE
  5
1FA
100
AcDbEntity
  8
0
100
AcDbCircle
 10
45.74885812
 20
47.22991048
 30
0.0
 40
8.75000000
  0
CIRCLE
  5
1FB
100
AcDbEntity
  8
0
100
AcDbCircle
 10
98.78607594
 20
100.26712830
 30
0.0
 40
8.75000000
  0
CIRCLE
  5
1FC
100
AcDbEntity
  8
0
100
AcDbCircle
 10
98.78607594
 20
175.27308104
 30
0.0
 40
8.75000000
  0
CIRCLE
  5
1FD
100
AcDbEntity
  8
0
100
AcDbCircle
 10
45.74885812
 20
228.31029885
 30
0.0
 40
8.75000000
  0
CIRCLE
  5
1FE
100
AcDbEntity
  8
0
100
AcDbCircle
 10
-29.25709462
 20
228.31029885
 30
0.0
 40
8.75000000
  0
CIRCLE
  5
1FF
100
AcDbEntity
  8
0
100
AcDbCircle
 10
-82.29431243
 20
175.27308104
 30
0.0
 40
8.75000000
  0
CIRCLE
  5
200
100
AcDbEntity
  8
0
100
AcDbCircle
 10
8.24588175
 20
137.77010467
 30
0.0
 40
112.50000000
  0
ENDBLK
  5
201
100
AcDbEntity
  8
0
100
AcDbBlockEnd
  0
BLOCK
  5
202
100
AcDbEntity
  8
0
100
AcDbBlockBegin
  2
ANS3D03_00015
 70
    64
 10
0.0
 20
0.0
 30
0.0
  3
ANS3D03_00015
  0
INSERT
  5
203
100
AcDbEntity
  8
0
100
AcDbBlockReference
  2
FIG3D03_00016
 10
0.0
 20
0.0
 30
0.0
  0
ENDBLK
  5
204
100
AcDbEntity
  8
0
100
AcDbBlockEnd
  0
BLOCK
  5
205
100
AcDbEntity
  8
0
100
AcDbBlockBegin
  2
FIG3D03_00016
 70
    64
 10
0.0
 20
0.0
 30
0.0
  3
FIG3D03_00016
  0
INSERT
  5
206
100
AcDbEntity
  8
0
100
AcDbBlockReference
  2
JR80_00017
 10
0.0
 20
0.0
 30
0.0
  0
ENDBLK
  5
207
100
AcDbEntity
  8
0
100
AcDbBlockEnd
  0
BLOCK
  5
208
100
AcDbEntity
  8
0
100
AcDbBlockBegin
  2
JR80_00017
 70
    64
 10
0.0
 20
0.0
 30
0.0
  3
JR80_00017
  0
INSERT
  5
209
100
AcDbEntity
  8
0
100
AcDbBlockReference
  2
GEHÄUSE_00018
 10
0.0
 20
0.0
 30
0.0
  0
INSERT
  5
20A
100
AcDbEntity
  8
0
100
AcDbBlockReference
  2
SCHUTZHAUBE_00020
 10
0.0
 20
0.0
 30
0.0
  0
ENDBLK
  5
20B
100
AcDbEntity
  8
0
100
AcDbBlockEnd
  0
BLOCK
  5
20C
100
AcDbEntity
  8
0
100
AcDbBlockBegin
  2
GEHÄUSE_00018
 70
    64
 10
0.0
 20
0.0
 30
0.0
  3
GEHÄUSE_00018
  0
INSERT
  5
20D
100
AcDbEntity
  8
0
100
AcDbBlockReference
  2
_GEHÄUSE_00019
 10
1651.74498373
 20
-197.22989533
 30
0.0
  0
ENDBLK
  5
20E
100
AcDbEntity
  8
0
100
AcDbBlockEnd
  0
BLOCK
  5
20F
100
AcDbEntity
  8
0
100
AcDbBlockBegin
  2
_GEHÄUSE_00019
 70
    64
 10
1651.74498373
 20
-197.22989533
 30
0.0
  3
_GEHÄUSE_00019
  0
LINE
  5
210
100
AcDbEntity
  8
0
100
AcDbLine
 10
1651.74498373
 20
-197.22989533
 30
0.0
 11
1651.74498373
 21
-165.22989533
 31
0.0
  0
LINE
  5
211
100
AcDbEntity
  8
0
100
AcDbLine
 10
1581.74498373
 20
-165.22989533
 30
0.0
 11
1651.74498373
 21
-165.22989533
 31
0.0
  0
LINE
  5
212
100
AcDbEntity
  8
0
100
AcDbLine
 10
1581.74498373
 20
-50.22989533
 30
0.0
 11
1581.74498373
 21
-165.22989533
 31
0.0
  0
LINE
  5
213
100
AcDbEntity
  8
0
100
AcDbLine
 10
1651.74498373
 20
-50.22989533
 30
0.0
 11
1581.74498373
 21
-50.22989533
 31
0.0
  0
LINE
  5
214
100
AcDbEntity
  8
0
100
AcDbLine
 10
1651.74498373
 20
-50.22989533
 30
0.0
 11
1651.74498373
 21
345.77010467
 31
0.0
  0
LINE
  5
215
100
AcDbEntity
  8
0
100
AcDbLine
 10
1281.74498373
 20
345.77010467
 30
0.0
 11
1651.74498373
 21
345.77010467
 31
0.0
  0
LINE
  5
216
100
AcDbEntity
  8
0
100
AcDbLine
 10
1281.74498373
 20
-50.22989533
 30
0.0
 11
1281.74498373
 21
345.77010467
 31
0.0
  0
LINE
  5
217
100
AcDbEntity
  8
0
100
AcDbLine
 10
1351.74498373
 20
-50.22989533
 30
0.0
 11
1281.74498373
 21
-50.22989533
 31
0.0
  0
LINE
  5
218
100
AcDbEntity
  8
0
100
AcDbLine
 10
1351.74498373
 20
-165.22989533
 30
0.0
 11
1351.74498373
 21
-50.22989533
 31
0.0
  0
LINE
  5
219
100
AcDbEntity
  8
0
100
AcDbLine
 10
1281.74498373
 20
-165.22989533
 30
0.0
 11
1351.74498373
 21
-165.22989533
 31
0.0
  0
LINE
  5
21A
100
AcDbEntity
  8
0
100
AcDbLine
 10
1281.74498373
 20
-197.22989533
 30
0.0
 11
1281.74498373
 21
-165.22989533
 31
0.0
  0
LINE
  5
21B
100
AcDbEntity
  8
0
100
AcDbLine
 10
1281.74498373
 20
-197.22989533
 30
0.0
 11
1369.74498373
 21
-197.22989533
 31
0.0
  0
LINE
  5
21C
100
AcDbEntity
  8
0
100
AcDbLine
 10
1369.74498373
 20
-192.22989533
 30
0.0
 11
1369.74498373
 21
-197.22989533
 31
0.0
  0
LINE
  5
21D
100
AcDbEntity
  8
0
100
AcDbLine
 10
1563.74498373
 20
-192.22989533
 30
0.0
 11
1369.74498373
 21
-192.22989533
 31
0.0
  0
LINE
  5
21E
100
AcDbEntity
  8
0
100
AcDbLine
 10
1563.74498373
 20
-197.22989533
 30
0.0
 11
1563.74498373
 21
-192.22989533
 31
0.0
  0
LINE
  5
21F
100
AcDbEntity
  8
0
100
AcDbLine
 10
1563.74498373
 20
-197.22989533
 30
0.0
 11
1651.74498373
 21
-197.22989533
 31
0.0
  0
ENDBLK
  5
220
100
AcDbEntity
  8
0
100
AcDbBlockEnd
  0
BLOCK
  5
221
100
AcDbEntity
  8
0
100
AcDbBlockBegin
  2
SCHUTZHAUBE_00020
 70
    64
 10
0.0
 20
0.0
 30
0.0
  3
SCHUTZHAUBE_00020
  0
INSERT
  5
222
100
AcDbEntity
  8
0
100
AcDbBlockReference
  2
SCHUTZHAUBE_00021
 10
0.0
 20
0.0
 30
0.0
  0
INSERT
  5
223
100
AcDbEntity
  8
0
100
AcDbBlockReference
  2
SCHUTZHAUBE_00023
 10
0.0
 20
0.0
 30
0.0
  0
ENDBLK
  5
224
100
AcDbEntity
  8
0
100
AcDbBlockEnd
  0
BLOCK
  5
225
100
AcDbEntity
  8
0
100
AcDbBlockBegin
  2
SCHUTZHAUBE_00021
 70
    64
 10
0.0
 20
0.0
 30
0.0
  3
SCHUTZHAUBE_00021
  0
INSERT
  5
226
100
AcDbEntity
  8
0
100
AcDbBlockReference
  2
_SCHUTZHAUBE_00022
 10
991.74498373
 20
266.59853179
 30
0.0
  0
ENDBLK
  5
227
100
AcDbEntity
  8
0
100
AcDbBlockEnd
  0
BLOCK
  5
228
100
AcDbEntity
  8
0
100
AcDbBlockBegin
  2
_SCHUTZHAUBE_00022
 70
    64
 10
991.74498373
 20
266.59853179
 30
0.0
  3
_SCHUTZHAUBE_00022
  0
LINE
  5
229
100
AcDbEntity
  8
0
100
AcDbLine
 10
991.74498373
 20
266.59853179
 30
0.0
 11
1281.74498373
 21
266.59853179
 31
0.0
  0
LINE
  5
22A
100
AcDbEntity
  8
0
100
AcDbLine
 10
1281.74498373
 20
-187.22989533
 30
0.0
 11
1281.74498373
 21
266.59853179
 31
0.0
  0
LINE
  5
22B
100
AcDbEntity
  8
0
100
AcDbLine
 10
1281.74498373
 20
-187.22989533
 30
0.0
 11
991.74498373
 21
-187.22989533
 31
0.0
  0
LINE
  5
22C
100
AcDbEntity
  8
0
100
AcDbLine
 10
991.74498373
 20
266.59853179
 30
0.0
 11
991.74498373
 21
-187.22989533
 31
0.0
  0
LINE
  5
22D
100
AcDbEntity
  8
0
100
AcDbLine
 10
991.74498373
 20
467.77010467
 30
0.0
 11
991.74498373
 21
266.59853179
 31
0.0
  0
LINE
  5
22E
100
AcDbEntity
  8
0
100
AcDbLine
 10
1283.74498373
 20
467.77010467
 30
0.0
 11
991.74498373
 21
467.77010467
 31
0.0
  0
LINE
  5
22F
100
AcDbEntity
  8
0
100
AcDbLine
 10
1283.74498373
 20
345.77010467
 30
0.0
 11
1283.74498373
 21
467.77010467
 31
0.0
  0
LINE
  5
230
100
AcDbEntity
  8
0
100
AcDbLine
 10
1281.74498373
 20
345.77010467
 30
0.0
 11
1283.74498373
 21
345.77010467
 31
0.0
  0
LINE
  5
231
100
AcDbEntity
  8
0
100
AcDbLine
 10
1281.74498373
 20
266.59853179
 30
0.0
 11
1281.74498373
 21
345.77010467
 31
0.0
  0
ENDBLK
  5
232
100
AcDbEntity
  8
0
100
AcDbBlockEnd
  0
BLOCK
  5
233
100
AcDbEntity
  8
0
100
AcDbBlockBegin
  2
SCHUTZHAUBE_00023
 70
    64
 10
0.0
 20
0.0
 30
0.0
  3
SCHUTZHAUBE_00023
  0
INSERT
  5
234
100
AcDbEntity
  8
0
100
AcDbBlockReference
  2
_SCHUTZHAUBE_00024
 10
1651.74498373
 20
345.77010467
 30
0.0
  0
ENDBLK
  5
235
100
AcDbEntity
  8
0
100
AcDbBlockEnd
  0
BLOCK
  5
236
100
AcDbEntity
  8
0
100
AcDbBlockBegin
  2
_SCHUTZHAUBE_00024
 70
    64
 10
1651.74498373
 20
345.77010467
 30
0.0
  3
_SCHUTZHAUBE_00024
  0
POLYLINE
  5
237
100
AcDbEntity
  8
0
100
AcDb2dPolyline
 66
     1
  0
VERTEX
  5
238
100
AcDbEntity
  8
0
100
AcDbVertex
100
AcDb2dVertex
 10
1651.74498373
 20
345.77010467
 30
0.0
  0
VERTEX
  5
239
100
AcDbEntity
  8
0
100
AcDbVertex
100
AcDb2dVertex
 10
1649.74498373
 20
345.77010467
 30
0.0
  0
VERTEX
  5
23A
100
AcDbEntity
  8
0
100
AcDbVertex
100
AcDb2dVertex
 10
1649.74498373
 20
467.77010467
 30
0.0
  0
VERTEX
  5
23B
100
AcDbEntity
  8
0
100
AcDbVertex
100
AcDb2dVertex
 10
1941.74498373
 20
467.77010467
 30
0.0
  0
VERTEX
  5
23C
100
AcDbEntity
  8
0
100
AcDbVertex
100
AcDb2dVertex
 10
1941.74498373
 20
266.59853179
 30
0.0
  0
VERTEX
  5
23D
100
AcDbEntity
  8
0
100
AcDbVertex
100
AcDb2dVertex
 10
1651.74498373
 20
266.59853179
 30
0.0
  0
VERTEX
  5
23E
100
AcDbEntity
  8
0
100
AcDbVertex
100
AcDb2dVertex
 10
1651.74498373
 20
345.77010467
 30
0.0
  0
SEQEND
  5
23F
100
AcDbEntity
  8
0
  0
LINE
  5
240
100
AcDbEntity
  8
0
100
AcDbLine
 10
1651.74498373
 20
-187.22989533
 30
0.0
 11
1651.74498373
 21
266.59853179
 31
0.0
  0
LINE
  5
241
100
AcDbEntity
  8
0
100
AcDbLine
 10
1651.74498373
 20
-187.22989533
 30
0.0
 11
1941.74498373
 21
-187.22989533
 31
0.0
  0
LINE
  5
242
100
AcDbEntity
  8
0
100
AcDbLine
 10
1941.74498373
 20
266.59853179
 30
0.0
 11
1941.74498373
 21
-187.22989533
 31
0.0
  0
ENDBLK
  5
243
100
AcDbEntity
  8
0
100
AcDbBlockEnd
  0
BLOCK
  5
244
100
AcDbEntity
  8
0
100
AcDbBlockBegin
  2
ANS3D04_00025
 70
    64
 10
0.0
 20
0.0
 30
0.0
  3
ANS3D04_00025
  0
INSERT
  5
245
100
AcDbEntity
  8
0
100
AcDbBlockReference
  2
FIG3D04_00026
 10
0.0
 20
0.0
 30
0.0
  0
ENDBLK
  5
246
100
AcDbEntity
  8
0
100
AcDbBlockEnd
  0
BLOCK
  5
247
100
AcDbEntity
  8
0
100
AcDbBlockBegin
  2
FIG3D04_00026
 70
    64
 10
0.0
 20
0.0
 30
0.0
  3
FIG3D04_00026
  0
INSERT
  5
248
100
AcDbEntity
  8
0
100
AcDbBlockReference
  2
JR80_00027
 10
0.0
 20
0.0
 30
0.0
  0
ENDBLK
  5
249
100
AcDbEntity
  8
0
100
AcDbBlockEnd
  0
BLOCK
  5
24A
100
AcDbEntity
  8
0
100
AcDbBlockBegin
  2
JR80_00027
 70
    64
 10
0.0
 20
0.0
 30
0.0
  3
JR80_00027
  0
INSERT
  5
24B
100
AcDbEntity
  8
0
100
AcDbBlockReference
  2
GEHÄUSE_00028
 10
0.0
 20
0.0
 30
0.0
  0
INSERT
  5
24C
100
AcDbEntity
  8
0
100
AcDbBlockReference
  2
SCHUTZHAUBE_00030
 10
0.0
 20
0.0
 30
0.0
  0
ENDBLK
  5
24D
100
AcDbEntity
  8
0
100
AcDbBlockEnd
  0
BLOCK
  5
24E
100
AcDbEntity
  8
0
100
AcDbBlockBegin
  2
GEHÄUSE_00028
 70
    64
 10
0.0
 20
0.0
 30
0.0
  3
GEHÄUSE_00028
  0
INSERT
  5
24F
100
AcDbEntity
  8
0
100
AcDbBlockReference
  2
_GEHÄUSE_00029
 10
-189.25411825
 20
-646.22457741
 30
0.0
  0
ENDBLK
  5
250
100
AcDbEntity
  8
0
100
AcDbBlockEnd
  0
BLOCK
  5
251
100
AcDbEntity
  8
0
100
AcDbBlockBegin
  2
_GEHÄUSE_00029
 70
    64
 10
-189.25411825
 20
-646.22457741
 30
0.0
  3
_GEHÄUSE_00029
  0
LINE
  5
252
100
AcDbEntity
  8
0
100
AcDbLine
 10
-189.25411825
 20
-646.22457741
 30
0.0
 11
-189.25411825
 21
-1012.22457741
 31
0.0
  0
LINE
  5
253
100
AcDbEntity
  8
0
100
AcDbLine
 10
585.74588175
 20
-1012.22457741
 30
0.0
 11
585.74588175
 21
-646.22457741
 31
0.0
  0
ENDBLK
  5
254
100
AcDbEntity
  8
0
100
AcDbBlockEnd
  0
BLOCK
  5
255
100
AcDbEntity
  8
0
100
AcDbBlockBegin
  2
SCHUTZHAUBE_00030
 70
    64
 10
0.0
 20
0.0
 30
0.0
  3
SCHUTZHAUBE_00030
  0
INSERT
  5
256
100
AcDbEntity
  8
0
100
AcDbBlockReference
  2
SCHUTZHAUBE_00031
 10
0.0
 20
0.0
 30
0.0
  0
INSERT
  5
257
100
AcDbEntity
  8
0
100
AcDbBlockReference
  2
SCHUTZHAUBE_00033
 10
0.0
 20
0.0
 30
0.0
  0
ENDBLK
  5
258
100
AcDbEntity
  8
0
100
AcDbBlockEnd
  0
BLOCK
  5
259
100
AcDbEntity
  8
0
100
AcDbBlockBegin
  2
SCHUTZHAUBE_00031
 70
    64
 10
0.0
 20
0.0
 30
0.0
  3
SCHUTZHAUBE_00031
  0
INSERT
  5
25A
100
AcDbEntity
  8
0
100
AcDbBlockReference
  2
_SCHUTZHAUBE_00032
 10
-237.58254537
 20
-646.22457741
 30
0.0
  0
ENDBLK
  5
25B
100
AcDbEntity
  8
0
100
AcDbBlockEnd
  0
BLOCK
  5
25C
100
AcDbEntity
  8
0
100
AcDbBlockBegin
  2
_SCHUTZHAUBE_00032
 70
    64
 10
-237.58254537
 20
-646.22457741
 30
0.0
  3
_SCHUTZHAUBE_00032
  0
POLYLINE
  5
25D
100
AcDbEntity
  8
0
100
AcDb2dPolyline
 66
     1
  0
VERTEX
  5
25E
100
AcDbEntity
  8
0
100
AcDbVertex
100
AcDb2dVertex
 10
-237.58254537
 20
-646.22457741
 30
0.0
  0
VERTEX
  5
25F
100
AcDbEntity
  8
0
100
AcDbVertex
100
AcDb2dVertex
 10
-115.58254537
 20
-646.22457741
 30
0.0
  0
VERTEX
  5
260
100
AcDbEntity
  8
0
100
AcDbVertex
100
AcDb2dVertex
 10
-115.58254537
 20
-354.22457741
 30
0.0
  0
VERTEX
  5
261
100
AcDbEntity
  8
0
100
AcDbVertex
100
AcDb2dVertex
 10
-316.75411825
 20
-354.22457741
 30
0.0
  0
VERTEX
  5
262
100
AcDbEntity
  8
0
100
AcDbVertex
100
AcDb2dVertex
 10
-316.75411825
 20
-644.22457741
 30
0.0
  0
VERTEX
  5
263
100
AcDbEntity
  8
0
100
AcDbVertex
100
AcDb2dVertex
 10
-237.58254537
 20
-644.22457741
 30
0.0
  0
VERTEX
  5
264
100
AcDbEntity
  8
0
100
AcDbVertex
100
AcDb2dVertex
 10
-237.58254537
 20
-646.22457741
 30
0.0
  0
SEQEND
  5
265
100
AcDbEntity
  8
0
  0
LINE
  5
266
100
AcDbEntity
  8
0
100
AcDbLine
 10
512.07430888
 20
-354.22457741
 30
0.0
 11
-115.58254537
 21
-354.22457741
 31
0.0
  0
LINE
  5
267
100
AcDbEntity
  8
0
100
AcDbLine
 10
512.07430888
 20
-354.22457741
 30
0.0
 11
512.07430888
 21
-646.22457741
 31
0.0
  0
POLYLINE
  5
268
100
AcDbEntity
  8
0
100
AcDb2dPolyline
 66
     1
  0
VERTEX
  5
269
100
AcDbEntity
  8
0
100
AcDbVertex
100
AcDb2dVertex
 10
-115.58254537
 20
-646.22457741
 30
0.0
  0
VERTEX
  5
26A
100
AcDbEntity
  8
0
100
AcDbVertex
100
AcDb2dVertex
 10
512.07430888
 20
-646.22457741
 30
0.0
  0
VERTEX
  5
26B
100
AcDbEntity
  8
0
100
AcDbVertex
100
AcDb2dVertex
 10
634.07430888
 20
-646.22457741
 30
0.0
  0
VERTEX
  5
26C
100
AcDbEntity
  8
0
100
AcDbVertex
100
AcDb2dVertex
 10
634.07430888
 20
-644.22457741
 30
0.0
  0
VERTEX
  5
26D
100
AcDbEntity
  8
0
100
AcDbVertex
100
AcDb2dVertex
 10
713.24588175
 20
-644.22457741
 30
0.0
  0
VERTEX
  5
26E
100
AcDbEntity
  8
0
100
AcDbVertex
100
AcDb2dVertex
 10
713.24588175
 20
-354.22457741
 30
0.0
  0
VERTEX
  5
26F
100
AcDbEntity
  8
0
100
AcDbVertex
100
AcDb2dVertex
 10
512.07430888
 20
-354.22457741
 30
0.0
  0
SEQEND
  5
270
100
AcDbEntity
  8
0
  0
ENDBLK
  5
271
100
AcDbEntity
  8
0
100
AcDbBlockEnd
  0
BLOCK
  5
272
100
AcDbEntity
  8
0
100
AcDbBlockBegin
  2
SCHUTZHAUBE_00033
 70
    64
 10
0.0
 20
0.0
 30
0.0
  3
SCHUTZHAUBE_00033
  0
INSERT
  5
273
100
AcDbEntity
  8
0
100
AcDbBlockReference
  2
_SCHUTZHAUBE_00034
 10
634.07430888
 20
-1012.22457741
 30
0.0
  0
ENDBLK
  5
274
100
AcDbEntity
  8
0
100
AcDbBlockEnd
  0
BLOCK
  5
275
100
AcDbEntity
  8
0
100
AcDbBlockBegin
  2
_SCHUTZHAUBE_00034
 70
    64
 10
634.07430888
 20
-1012.22457741
 30
0.0
  3
_SCHUTZHAUBE_00034
  0
POLYLINE
  5
276
100
AcDbEntity
  8
0
100
AcDb2dPolyline
 66
     1
  0
VERTEX
  5
277
100
AcDbEntity
  8
0
100
AcDbVertex
100
AcDb2dVertex
 10
634.07430888
 20
-1012.22457741
 30
0.0
  0
VERTEX
  5
278
100
AcDbEntity
  8
0
100
AcDbVertex
100
AcDb2dVertex
 10
634.07430888
 20
-1014.22457741
 30
0.0
  0
VERTEX
  5
279
100
AcDbEntity
  8
0
100
AcDbVertex
100
AcDb2dVertex
 10
713.24588175
 20
-1014.22457741
 30
0.0
  0
VERTEX
  5
27A
100
AcDbEntity
  8
0
100
AcDbVertex
100
AcDb2dVertex
 10
713.24588175
 20
-1304.22457741
 30
0.0
  0
VERTEX
  5
27B
100
AcDbEntity
  8
0
100
AcDbVertex
100
AcDb2dVertex
 10
512.07430888
 20
-1304.22457741
 30
0.0
  0
VERTEX
  5
27C
100
AcDbEntity
  8
0
100
AcDbVertex
100
AcDb2dVertex
 10
512.07430888
 20
-1012.22457741
 30
0.0
  0
VERTEX
  5
27D
100
AcDbEntity
  8
0
100
AcDbVertex
100
AcDb2dVertex
 10
634.07430888
 20
-1012.22457741
 30
0.0
  0
SEQEND
  5
27E
100
AcDbEntity
  8
0
  0
LINE
  5
27F
100
AcDbEntity
  8
0
100
AcDbLine
 10
-115.58254537
 20
-1012.22457741
 30
0.0
 11
512.07430888
 21
-1012.22457741
 31
0.0
  0
LINE
  5
280
100
AcDbEntity
  8
0
100
AcDbLine
 10
-115.58254537
 20
-1012.22457741
 30
0.0
 11
-115.58254537
 21
-1304.22457741
 31
0.0
  0
POLYLINE
  5
281
100
AcDbEntity
  8
0
100
AcDb2dPolyline
 66
     1
  0
VERTEX
  5
282
100
AcDbEntity
  8
0
100
AcDbVertex
100
AcDb2dVertex
 10
512.07430888
 20
-1304.22457741
 30
0.0
  0
VERTEX
  5
283
100
AcDbEntity
  8
0
100
AcDbVertex
100
AcDb2dVertex
 10
-115.58254537
 20
-1304.22457741
 30
0.0
  0
VERTEX
  5
284
100
AcDbEntity
  8
0
100
AcDbVertex
100
AcDb2dVertex
 10
-316.75411825
 20
-1304.22457741
 30
0.0
  0
VERTEX
  5
285
100
AcDbEntity
  8
0
100
AcDbVertex
100
AcDb2dVertex
 10
-316.75411825
 20
-1014.22457741
 30
0.0
  0
VERTEX
  5
286
100
AcDbEntity
  8
0
100
AcDbVertex
100
AcDb2dVertex
 10
-237.58254537
 20
-1014.22457741
 30
0.0
  0
VERTEX
  5
287
100
AcDbEntity
  8
0
100
AcDbVertex
100
AcDb2dVertex
 10
-237.58254537
 20
-1012.22457741
 30
0.0
  0
VERTEX
  5
288
100
AcDbEntity
  8
0
100
AcDbVertex
100
AcDb2dVertex
 10
-115.58254537
 20
-1012.22457741
 30
0.0
  0
SEQEND
  5
289
100
AcDbEntity
  8
0
  0
ENDBLK
  5
28A
100
AcDbEntity
  8
0
100
AcDbBlockEnd
  0
BLOCK
  5
28B
100
AcDbEntity
  8
0
100
AcDbBlockBegin
  2
ANS3D05_00035
 70
    64
 10
0.0
 20
0.0
 30
0.0
  3
ANS3D05_00035
  0
INSERT
  5
28C
100
AcDbEntity
  8
0
100
AcDbBlockReference
  2
FIG3D05_00036
 10
0.0
 20
0.0
 30
0.0
  0
ENDBLK
  5
28D
100
AcDbEntity
  8
0
100
AcDbBlockEnd
  0
BLOCK
  5
28E
100
AcDbEntity
  8
0
100
AcDbBlockBegin
  2
FIG3D05_00036
 70
    64
 10
0.0
 20
0.0
 30
0.0
  3
FIG3D05_00036
  0
INSERT
  5
28F
100
AcDbEntity
  8
0
100
AcDbBlockReference
  2
JR80_00037
 10
0.0
 20
0.0
 30
0.0
  0
ENDBLK
  5
290
100
AcDbEntity
  8
0
100
AcDbBlockEnd
  0
BLOCK
  5
291
100
AcDbEntity
  8
0
100
AcDbBlockBegin
  2
JR80_00037
 70
    64
 10
0.0
 20
0.0
 30
0.0
  3
JR80_00037
  0
INSERT
  5
292
100
AcDbEntity
  8
0
100
AcDbBlockReference
  2
GEHÄUSE_00038
 10
0.0
 20
0.0
 30
0.0
  0
INSERT
  5
293
100
AcDbEntity
  8
0
100
AcDbBlockReference
  2
FLIEHGEWICHT_00040
 10
0.0
 20
0.0
 30
0.0
  0
INSERT
  5
294
100
AcDbEntity
  8
0
100
AcDbBlockReference
  2
SCHUTZHAUBE_00049
 10
0.0
 20
0.0
 30
0.0
  0
INSERT
  5
295
100
AcDbEntity
  8
0
100
AcDbBlockReference
  2
ANSCHLUßFLANSCH_00054
 10
0.0
 20
0.0
 30
0.0
  0
ENDBLK
  5
296
100
AcDbEntity
  8
0
100
AcDbBlockEnd
  0
BLOCK
  5
297
100
AcDbEntity
  8
0
100
AcDbBlockBegin
  2
GEHÄUSE_00038
 70
    64
 10
0.0
 20
0.0
 30
0.0
  3
GEHÄUSE_00038
  0
INSERT
  5
298
100
AcDbEntity
  8
0
100
AcDbBlockReference
  2
_GEHÄUSE_00039
 10
2072.41455946
 20
-1225.95646784
 30
0.0
  0
ENDBLK
  5
299
100
AcDbEntity
  8
0
100
AcDbBlockEnd
  0
BLOCK
  5
29A
100
AcDbEntity
  8
0
100
AcDbBlockBegin
  2
_GEHÄUSE_00039
 70
    64
 10
2072.41455946
 20
-1225.95646784
 30
0.0
  3
_GEHÄUSE_00039
  0
POLYLINE
  5
29B
100
AcDbEntity
  8
0
100
AcDb2dPolyline
 66
     1
  0
VERTEX
  5
29C
100
AcDbEntity
  8
0
100
AcDbVertex
100
AcDb2dVertex
 10
2072.41455946
 20
-1225.95646784
 30
0.0
  0
VERTEX
  5
29D
100
AcDbEntity
  8
0
100
AcDbVertex
100
AcDb2dVertex
 10
2083.96398478
 20
-1215.77083212
 30
0.0
  0
VERTEX
  5
29E
100
AcDbEntity
  8
0
100
AcDbVertex
100
AcDb2dVertex
 10
2083.96398478
 20
-1185.60094279
 30
0.0
  0
SEQEND
  5
29F
100
AcDbEntity
  8
0
  0
LINE
  5
2A0
100
AcDbEntity
  8
0
100
AcDbLine
 10
2072.41455946
 20
-1195.78657851
 30
0.0
 11
2083.96398478
 21
-1185.60094279
 31
0.0
  0
LINE
  5
2A1
100
AcDbEntity
  8
0
100
AcDbLine
 10
2083.96398478
 20
-1077.17790301
 30
0.0
 11
2072.41455946
 21
-1087.36353873
 31
0.0
  0
LINE
  5
2A2
100
AcDbEntity
  8
0
100
AcDbLine
 10
2083.96398478
 20
-1077.17790301
 30
0.0
 11
2083.96398478
 21
-704.53821919
 31
0.0
  0
LINE
  5
2A3
100
AcDbEntity
  8
0
100
AcDbLine
 10
1976.45988908
 20
-798.63522325
 30
0.0
 11
2083.25687799
 21
-704.44913210
 31
0.0
  0
LINE
  5
2A4
100
AcDbEntity
  8
0
100
AcDbLine
 10
1358.31075931
 20
-613.11450620
 30
0.0
 11
1343.03076865
 21
-626.59019131
 31
0.0
  0
LINE
  5
2A5
100
AcDbEntity
  8
0
100
AcDbLine
 10
2083.96398478
 20
-1185.60094279
 30
0.0
 11
2072.41455946
 21
-1184.14585197
 31
0.0
  0
ENDBLK
  5
2A6
100
AcDbEntity
  8
0
100
AcDbBlockEnd
  0
BLOCK
  5
2A7
100
AcDbEntity
  8
0
100
AcDbBlockBegin
  2
FLIEHGEWICHT_00040
 70
    64
 10
0.0
 20
0.0
 30
0.0
  3
FLIEHGEWICHT_00040
  0
INSERT
  5
2A8
100
AcDbEntity
  8
0
100
AcDbBlockReference
  2
FLIEHGEWICHT_00041
 10
0.0
 20
0.0
 30
0.0
  0
INSERT
  5
2A9
100
AcDbEntity
  8
0
100
AcDbBlockReference
  2
FLIEHGEWICHT_00044
 10
0.0
 20
0.0
 30
0.0
  0
ENDBLK
  5
2AA
100
AcDbEntity
  8
0
100
AcDbBlockEnd
  0
BLOCK
  5
2AB
100
AcDbEntity
  8
0
100
AcDbBlockBegin
  2
FLIEHGEWICHT_00041
 70
    64
 10
0.0
 20
0.0
 30
0.0
  3
FLIEHGEWICHT_00041
  0
INSERT
  5
2AC
100
AcDbEntity
  8
0
100
AcDbBlockReference
  2
FLIEHGEWICHT_00042
 10
0.0
 20
0.0
 30
0.0
  0
ENDBLK
  5
2AD
100
AcDbEntity
  8
0
100
AcDbBlockEnd
  0
BLOCK
  5
2AE
100
AcDbEntity
  8
0
100
AcDbBlockBegin
  2
FLIEHGEWICHT_00042
 70
    64
 10
0.0
 20
0.0
 30
0.0
  3
FLIEHGEWICHT_00042
  0
INSERT
  5
2AF
100
AcDbEntity
  8
0
100
AcDbBlockReference
  2
_FLIEHGEWICHT_00043
 10
1413.19547453
 20
-1005.29350561
 30
0.0
  0
ENDBLK
  5
2B0
100
AcDbEntity
  8
0
100
AcDbBlockEnd
  0
BLOCK
  5
2B1
100
AcDbEntity
  8
0
100
AcDbBlockBegin
  2
_FLIEHGEWICHT_00043
 70
    64
 10
1413.19547453
 20
-1005.29350561
 30
0.0
  3
_FLIEHGEWICHT_00043
  0
ELLIPSE
  5
2B2
100
AcDbEntity
  8
0
100
AcDbEllipse
 10
1368.22294113
 20
-986.68184988
 30
0.0
 11
33.07189139
 21
-37.50000000
 31
0.0
 40
0.88191710
 41
0.50720504
 42
0.50945169
  0
ELLIPSE
  5
2B3
100
AcDbEntity
  8
0
100
AcDbEllipse
 10
1368.22294113
 20
-986.68184988
 30
0.0
 11
33.07189139
 21
-37.50000000
 31
0.0
 40
0.88191710
 41
2.63214096
 42
2.63438761
  0
ENDBLK
  5
2B4
100
AcDbEntity
  8
0
100
AcDbBlockEnd
  0
BLOCK
  5
2B5
100
AcDbEntity
  8
0
100
AcDbBlockBegin
  2
FLIEHGEWICHT_00044
 70
    64
 10
0.0
 20
0.0
 30
0.0
  3
FLIEHGEWICHT_00044
  0
INSERT
  5
2B6
100
AcDbEntity
  8
0
100
AcDbBlockReference
  2
FLIEHGEWICHT_00045
 10
0.0
 20
0.0
 30
0.0
  0
INSERT
  5
2B7
100
AcDbEntity
  8
0
100
AcDbBlockReference
  2
FLIEHGEWICHT_00047
 10
0.0
 20
0.0
 30
0.0
  0
ENDBLK
  5
2B8
100
AcDbEntity
  8
0
100
AcDbBlockEnd
  0
BLOCK
  5
2B9
100
AcDbEntity
  8
0
100
AcDbBlockBegin
  2
FLIEHGEWICHT_00045
 70
    64
 10
0.0
 20
0.0
 30
0.0
  3
FLIEHGEWICHT_00045
  0
INSERT
  5
2BA
100
AcDbEntity
  8
0
100
AcDbBlockReference
  2
_FLIEHGEWICHT_00046
 10
1344.06473484
 20
-611.31967582
 30
0.0
  0
ENDBLK
  5
2BB
100
AcDbEntity
  8
0
100
AcDbBlockEnd
  0
BLOCK
  5
2BC
100
AcDbEntity
  8
0
100
AcDbBlockBegin
  2
_FLIEHGEWICHT_00046
 70
    64
 10
1344.06473484
 20
-611.31967582
 30
0.0
  3
_FLIEHGEWICHT_00046
  0
ELLIPSE
  5
2BD
100
AcDbEntity
  8
0
100
AcDbEllipse
 10
1552.24748093
 20
-824.38746073
 30
0.0
 11
197.10847267
 21
-223.50000000
 31
0.0
 40
0.88191710
 41
3.19948386
 42
3.27068489
  0
ENDBLK
  5
2BE
100
AcDbEntity
  8
0
100
AcDbBlockEnd
  0
BLOCK
  5
2BF
100
AcDbEntity
  8
0
100
AcDbBlockBegin
  2
FLIEHGEWICHT_00047
 70
    64
 10
0.0
 20
0.0
 30
0.0
  3
FLIEHGEWICHT_00047
  0
INSERT
  5
2C0
100
AcDbEntity
  8
0
100
AcDbBlockReference
  2
_FLIEHGEWICHT_00048
 10
2072.41455946
 20
-1098.62839598
 30
0.0
  0
ENDBLK
  5
2C1
100
AcDbEntity
  8
0
100
AcDbBlockEnd
  0
BLOCK
  5
2C2
100
AcDbEntity
  8
0
100
AcDbBlockBegin
  2
_FLIEHGEWICHT_00048
 70
    64
 10
2072.41455946
 20
-1098.62839598
 30
0.0
  3
_FLIEHGEWICHT_00048
  0
ELLIPSE
  5
2C3
100
AcDbEntity
  8
0
100
AcDbEllipse
 10
1952.07588320
 20
-830.03939003
 30
0.0
 11
197.10847267
 21
-223.50000000
 31
0.0
 40
0.88191710
 41
5.94416692
 42
0.00000000
  0
ELLIPSE
  5
2C4
100
AcDbEntity
  8
0
100
AcDbEllipse
 10
1952.07588320
 20
-830.03939003
 30
0.0
 11
197.10847267
 21
-223.50000000
 31
0.0
 40
0.88191710
 41
0.00000000
 42
0.32141307
  0
ELLIPSE
  5
2C5
100
AcDbEntity
  8
0
100
AcDbEllipse
 10
1988.31510573
 20
-798.07939985
 30
0.0
 11
197.10847267
 21
-223.50000000
 31
0.0
 40
0.88191710
 41
6.28318531
 42
0.08451301
  0
LINE
  5
2C6
100
AcDbEntity
  8
0
100
AcDbLine
 10
2149.18435587
 20
-1053.53939003
 30
0.0
 11
2185.42357841
 21
-1021.57939985
 31
0.0
  0
ENDBLK
  5
2C7
100
AcDbEntity
  8
0
100
AcDbBlockEnd
  0
BLOCK
  5
2C8
100
AcDbEntity
  8
0
100
AcDbBlockBegin
  2
SCHUTZHAUBE_00049
 70
    64
 10
0.0
 20
0.0
 30
0.0
  3
SCHUTZHAUBE_00049
  0
INSERT
  5
2C9
100
AcDbEntity
  8
0
100
AcDbBlockReference
  2
SCHUTZHAUBE_00050
 10
0.0
 20
0.0
 30
0.0
  0
INSERT
  5
2CA
100
AcDbEntity
  8
0
100
AcDbBlockReference
  2
SCHUTZHAUBE_00052
 10
0.0
 20
0.0
 30
0.0
  0
ENDBLK
  5
2CB
100
AcDbEntity
  8
0
100
AcDbBlockEnd
  0
BLOCK
  5
2CC
100
AcDbEntity
  8
0
100
AcDbBlockBegin
  2
SCHUTZHAUBE_00050
 70
    64
 10
0.0
 20
0.0
 30
0.0
  3
SCHUTZHAUBE_00050
  0
INSERT
  5
2CD
100
AcDbEntity
  8
0
100
AcDbBlockReference
  2
_SCHUTZHAUBE_00051
 10
1343.44674207
 20
-611.24181605
 30
0.0
  0
ENDBLK
  5
2CE
100
AcDbEntity
  8
0
100
AcDbBlockEnd
  0
BLOCK
  5
2CF
100
AcDbEntity
  8
0
100
AcDbBlockBegin
  2
_SCHUTZHAUBE_00051
 70
    64
 10
1343.44674207
 20
-611.24181605
 30
0.0
  3
_SCHUTZHAUBE_00051
  0
LINE
  5
2D0
100
AcDbEntity
  8
0
100
AcDbLine
 10
1343.44674207
 20
-611.24181605
 30
0.0
 11
1343.44674207
 21
-611.94369161
 31
0.0
  0
LINE
  5
2D1
100
AcDbEntity
  8
0
100
AcDbLine
 10
1297.82366456
 20
-620.89463155
 30
0.0
 11
1313.10365522
 21
-607.41894644
 31
0.0
  0
LINE
  5
2D2
100
AcDbEntity
  8
0
100
AcDbLine
 10
1315.74940653
 20
-607.75227978
 30
0.0
 11
1300.46941587
 21
-621.22796489
 31
0.0
  0
LINE
  5
2D3
100
AcDbEntity
  8
0
100
AcDbLine
 10
2072.41455946
 20
-1102.25933399
 30
0.0
 11
2201.35848529
 21
-1118.50474165
 31
0.0
  0
LINE
  5
2D4
100
AcDbEntity
  8
0
100
AcDbLine
 10
2014.34343178
 20
-580.74415090
 30
0.0
 11
2128.46398208
 21
-710.14469186
 31
0.0
  0
LINE
  5
2D5
100
AcDbEntity
  8
0
100
AcDbLine
 10
1313.10365522
 20
-607.41894644
 30
0.0
 11
2128.46398208
 21
-710.14469186
 31
0.0
  0
POLYLINE
  5
2D6
100
AcDbEntity
  8
0
100
AcDb2dPolyline
 66
     1
  0
VERTEX
  5
2D7
100
AcDbEntity
  8
0
100
AcDbVertex
100
AcDb2dVertex
 10
1313.10365522
 20
-607.41894644
 30
0.0
  0
VERTEX
  5
2D8
100
AcDbEntity
  8
0
100
AcDbVertex
100
AcDb2dVertex
 10
1427.22420552
 20
-506.77408126
 30
0.0
  0
VERTEX
  5
2D9
100
AcDbEntity
  8
0
100
AcDbVertex
100
AcDb2dVertex
 10
2014.34343178
 20
-580.74415090
 30
0.0
  0
SEQEND
  5
2DA
100
AcDbEntity
  8
0
  0
LINE
  5
2DB
100
AcDbEntity
  8
0
100
AcDbLine
 10
2117.58102184
 20
-489.69715449
 30
0.0
 11
2014.34343178
 21
-580.74415090
 31
0.0
  0
LINE
  5
2DC
100
AcDbEntity
  8
0
100
AcDbLine
 10
2305.75979725
 20
-703.07182954
 30
0.0
 11
2117.58102184
 21
-489.69715449
 31
0.0
  0
LINE
  5
2DD
100
AcDbEntity
  8
0
100
AcDbLine
 10
2203.22931398
 20
-793.49521638
 30
0.0
 11
2305.75979725
 21
-703.07182954
 31
0.0
  0
LINE
  5
2DE
100
AcDbEntity
  8
0
100
AcDbLine
 10
2129.17108886
 20
-709.52108230
 30
0.0
 11
2203.22931398
 21
-793.49521638
 31
0.0
  0
LINE
  5
2DF
100
AcDbEntity
  8
0
100
AcDbLine
 10
2128.46398208
 20
-710.14469186
 30
0.0
 11
2129.17108886
 21
-709.52108230
 31
0.0
  0
LINE
  5
2E0
100
AcDbEntity
  8
0
100
AcDbLine
 10
2201.35848529
 20
-794.04056271
 30
0.0
 11
2127.23244433
 21
-709.98953269
 31
0.0
  0
LINE
  5
2E1
100
AcDbEntity
  8
0
100
AcDbLine
 10
2201.35848529
 20
-1221.13305854
 30
0.0
 11
2201.35848529
 21
-794.04056271
 31
0.0
  0
LINE
  5
2E2
100
AcDbEntity
  8
0
100
AcDbLine
 10
2203.22931398
 20
-1221.36876080
 30
0.0
 11
2201.35848529
 21
-1221.13305854
 31
0.0
  0
LINE
  5
2E3
100
AcDbEntity
  8
0
100
AcDbLine
 10
2203.22931398
 20
-793.49521638
 30
0.0
 11
2203.22931398
 21
-1221.36876080
 31
0.0
  0
LINE
  5
2E4
100
AcDbEntity
  8
0
100
AcDbLine
 10
2305.75979725
 20
-1130.94537396
 30
0.0
 11
2203.22931398
 21
-1221.36876080
 31
0.0
  0
LINE
  5
2E5
100
AcDbEntity
  8
0
100
AcDbLine
 10
2305.75979725
 20
-1130.94537396
 30
0.0
 11
2305.75979725
 21
-703.07182954
 31
0.0
  0
LINE
  5
2E6
100
AcDbEntity
  8
0
100
AcDbLine
 10
2117.58102184
 20
-489.69715449
 30
0.0
 11
1530.46179557
 21
-415.72708484
 31
0.0
  0
LINE
  5
2E7
100
AcDbEntity
  8
0
100
AcDbLine
 10
1427.22420552
 20
-506.77408126
 30
0.0
 11
1530.46179557
 21
-415.72708484
 31
0.0
  0
ENDBLK
  5
2E8
100
AcDbEntity
  8
0
100
AcDbBlockEnd
  0
BLOCK
  5
2E9
100
AcDbEntity
  8
0
100
AcDbBlockBegin
  2
SCHUTZHAUBE_00052
 70
    64
 10
0.0
 20
0.0
 30
0.0
  3
SCHUTZHAUBE_00052
  0
INSERT
  5
2EA
100
AcDbEntity
  8
0
100
AcDbBlockReference
  2
_SCHUTZHAUBE_00053
 10
1231.04442244
 20
-947.66193177
 30
0.0
  0
ENDBLK
  5
2EB
100
AcDbEntity
  8
0
100
AcDbBlockEnd
  0
BLOCK
  5
2EC
100
AcDbEntity
  8
0
100
AcDbBlockBegin
  2
_SCHUTZHAUBE_00053
 70
    64
 10
1231.04442244
 20
-947.66193177
 30
0.0
  3
_SCHUTZHAUBE_00053
  0
ELLIPSE
  5
2ED
100
AcDbEntity
  8
0
100
AcDbEllipse
 10
1310.41696177
 20
-1037.66193177
 30
0.0
 11
79.37253933
 21
-90.00000000
 31
0.0
 40
0.88191710
 41
3.14159265
 42
0.00000000
  0
ELLIPSE
  5
2EE
100
AcDbEntity
  8
0
100
AcDbEllipse
 10
1310.41696177
 20
-1037.66193177
 30
0.0
 11
79.37253933
 21
-90.00000000
 31
0.0
 40
0.88191710
 41
6.28318531
 42
3.14159265
  0
ELLIPSE
  5
2EF
100
AcDbEntity
  8
0
100
AcDbEllipse
 10
1311.12406855
 20
-1037.03832221
 30
0.0
 11
79.37253933
 21
-90.00000000
 31
0.0
 40
0.88191710
 41
3.14604702
 42
6.27873094
  0
LINE
  5
2F0
100
AcDbEntity
  8
0
100
AcDbLine
 10
1969.88407619
 20
-1427.15991708
 30
0.0
 11
2072.41455946
 21
-1336.73653023
 31
0.0
  0
LINE
  5
2F1
100
AcDbEntity
  8
0
100
AcDbLine
 10
2072.41455946
 20
-908.86298581
 30
0.0
 11
2072.41455946
 21
-1336.73653023
 31
0.0
  0
LINE
  5
2F2
100
AcDbEntity
  8
0
100
AcDbLine
 10
2072.41455946
 20
-908.86298581
 30
0.0
 11
1969.88407619
 21
-999.28637266
 31
0.0
  0
LINE
  5
2F3
100
AcDbEntity
  8
0
100
AcDbLine
 10
1969.88407619
 20
-1427.15991708
 30
0.0
 11
1969.88407619
 21
-999.28637266
 31
0.0
  0
LINE
  5
2F4
100
AcDbEntity
  8
0
100
AcDbLine
 10
1006.40729909
 20
-1305.77325297
 30
0.0
 11
1969.88407619
 21
-1427.15991708
 31
0.0
  0
LINE
  5
2F5
100
AcDbEntity
  8
0
100
AcDbLine
 10
1006.40729909
 20
-877.89970855
 30
0.0
 11
1006.40729909
 21
-1305.77325297
 31
0.0
  0
LINE
  5
2F6
100
AcDbEntity
  8
0
100
AcDbLine
 10
1194.58607451
 20
-711.94162796
 30
0.0
 11
1006.40729909
 21
-877.89970855
 31
0.0
  0
LINE
  5
2F7
100
AcDbEntity
  8
0
100
AcDbLine
 10
1297.82366456
 20
-620.89463155
 30
0.0
 11
1194.58607451
 21
-711.94162796
 31
0.0
  0
POLYLINE
  5
2F8
100
AcDbEntity
  8
0
100
AcDb2dPolyline
 66
     1
  0
VERTEX
  5
2F9
100
AcDbEntity
  8
0
100
AcDbVertex
100
AcDb2dVertex
 10
1297.82366456
 20
-620.89463155
 30
0.0
  0
VERTEX
  5
2FA
100
AcDbEntity
  8
0
100
AcDbVertex
100
AcDb2dVertex
 10
1884.94289083
 20
-694.86470120
 30
0.0
  0
VERTEX
  5
2FB
100
AcDbEntity
  8
0
100
AcDbVertex
100
AcDb2dVertex
 10
1999.06344112
 20
-824.26524216
 30
0.0
  0
VERTEX
  5
2FC
100
AcDbEntity
  8
0
100
AcDbVertex
100
AcDb2dVertex
 10
1998.35633434
 20
-824.88885172
 30
0.0
  0
VERTEX
  5
2FD
100
AcDbEntity
  8
0
100
AcDbVertex
100
AcDb2dVertex
 10
2072.41455946
 20
-908.86298581
 30
0.0
  0
SEQEND
  5
2FE
100
AcDbEntity
  8
0
  0
LINE
  5
2FF
100
AcDbEntity
  8
0
100
AcDbLine
 10
1781.70530077
 20
-785.91169761
 30
0.0
 11
1884.94289083
 21
-694.86470120
 31
0.0
  0
POLYLINE
  5
300
100
AcDbEntity
  8
0
100
AcDb2dPolyline
 66
     1
  0
VERTEX
  5
301
100
AcDbEntity
  8
0
100
AcDbVertex
100
AcDb2dVertex
 10
1969.88407619
 20
-999.28637266
 30
0.0
  0
VERTEX
  5
302
100
AcDbEntity
  8
0
100
AcDbVertex
100
AcDb2dVertex
 10
1781.70530077
 20
-785.91169761
 30
0.0
  0
VERTEX
  5
303
100
AcDbEntity
  8
0
100
AcDbVertex
100
AcDb2dVertex
 10
1194.58607451
 20
-711.94162796
 30
0.0
  0
SEQEND
  5
304
100
AcDbEntity
  8
0
  0
ENDBLK
  5
305
100
AcDbEntity
  8
0
100
AcDbBlockEnd
  0
BLOCK
  5
306
100
AcDbEntity
  8
0
100
AcDbBlockBegin
  2
ANSCHLUßFLANSCH_00054
 70
    64
 10
0.0
 20
0.0
 30
0.0
  3
ANSCHLUßFLANSCH_00054
  0
INSERT
  5
307
100
AcDbEntity
  8
0
100
AcDbBlockReference
  2
_ANSCHLUßFLANSCH_00055
 10
1219.93678418
 20
-1055.78731277
 30
0.0
  0
ENDBLK
  5
308
100
AcDbEntity
  8
0
100
AcDbBlockEnd
  0
BLOCK
  5
309
100
AcDbEntity
  8
0
100
AcDbBlockBegin
  2
_ANSCHLUßFLANSCH_00055
 70
    64
 10
1219.93678418
 20
-1055.78731277
 30
0.0
  3
_ANSCHLUßFLANSCH_00055
  0
ELLIPSE
  5
30A
100
AcDbEntity
  8
0
100
AcDbEllipse
 10
1225.72436517
 20
-1062.34981277
 30
0.0
 11
5.78758099
 21
-6.56250000
 31
0.0
 40
0.88191710
 41
3.14159265
 42
6.28318531
  0
ELLIPSE
  5
30B
100
AcDbEntity
  8
0
100
AcDbEllipse
 10
1225.72436517
 20
-1062.34981277
 30
0.0
 11
5.78758099
 21
-6.56250000
 31
0.0
 40
0.88191710
 41
0.00000000
 42
3.14159265
  0
ELLIPSE
  5
30C
100
AcDbEntity
  8
0
100
AcDbEllipse
 10
1231.02766603
 20
-1057.67274104
 30
0.0
 11
5.78758099
 21
-6.56250000
 31
0.0
 40
0.88191710
 41
3.61751910
 42
5.80725887
  0
ELLIPSE
  5
30D
100
AcDbEntity
  8
0
100
AcDbEllipse
 10
1275.33613963
 20
-1118.60427733
 30
0.0
 11
5.78758099
 21
-6.56250000
 31
0.0
 40
0.88191710
 41
3.14159265
 42
6.28318531
  0
ELLIPSE
  5
30E
100
AcDbEntity
  8
0
100
AcDbEllipse
 10
1275.33613963
 20
-1118.60427733
 30
0.0
 11
5.78758099
 21
-6.56250000
 31
0.0
 40
0.88191710
 41
0.00000000
 42
3.14159265
  0
ELLIPSE
  5
30F
100
AcDbEntity
  8
0
100
AcDbEllipse
 10
1280.63944049
 20
-1113.92720559
 30
0.0
 11
5.78758099
 21
-6.56250000
 31
0.0
 40
0.88191710
 41
3.61751910
 42
5.80725887
  0
ELLIPSE
  5
310
100
AcDbEntity
  8
0
100
AcDbEllipse
 10
1345.49778391
 20
-1127.44381363
 30
0.0
 11
5.78758099
 21
-6.56250000
 31
0.0
 40
0.88191710
 41
3.14159265
 42
6.28318531
  0
ELLIPSE
  5
311
100
AcDbEntity
  8
0
100
AcDbEllipse
 10
1345.49778391
 20
-1127.44381363
 30
0.0
 11
5.78758099
 21
-6.56250000
 31
0.0
 40
0.88191710
 41
6.28318531
 42
3.14159265
  0
ELLIPSE
  5
312
100
AcDbEntity
  8
0
100
AcDbEllipse
 10
1350.80108477
 20
-1122.76674190
 30
0.0
 11
5.78758099
 21
-6.56250000
 31
0.0
 40
0.88191710
 41
3.61751910
 42
5.80725887
  0
ELLIPSE
  5
313
100
AcDbEntity
  8
0
100
AcDbEllipse
 10
1395.10955836
 20
-1083.69034120
 30
0.0
 11
5.78758099
 21
-6.56250000
 31
0.0
 40
0.88191710
 41
3.14159265
 42
6.28318531
  0
ELLIPSE
  5
314
100
AcDbEntity
  8
0
100
AcDbEllipse
 10
1395.10955836
 20
-1083.69034120
 30
0.0
 11
5.78758099
 21
-6.56250000
 31
0.0
 40
0.88191710
 41
6.28318531
 42
3.14159265
  0
ELLIPSE
  5
315
100
AcDbEntity
  8
0
100
AcDbEllipse
 10
1400.41285922
 20
-1079.01326946
 30
0.0
 11
5.78758099
 21
-6.56250000
 31
0.0
 40
0.88191710
 41
3.61751910
 42
5.80725887
  0
ELLIPSE
  5
316
100
AcDbEntity
  8
0
100
AcDbEllipse
 10
1395.10955836
 20
-1012.97405078
 30
0.0
 11
5.78758099
 21
-6.56250000
 31
0.0
 40
0.88191710
 41
3.14159265
 42
6.28318531
  0
ELLIPSE
  5
317
100
AcDbEntity
  8
0
100
AcDbEllipse
 10
1395.10955836
 20
-1012.97405078
 30
0.0
 11
5.78758099
 21
-6.56250000
 31
0.0
 40
0.88191710
 41
0.00000000
 42
3.14159265
  0
ELLIPSE
  5
318
100
AcDbEntity
  8
0
100
AcDbEllipse
 10
1400.41285922
 20
-1008.29697904
 30
0.0
 11
5.78758099
 21
-6.56250000
 31
0.0
 40
0.88191710
 41
3.61751910
 42
5.80725887
  0
ELLIPSE
  5
319
100
AcDbEntity
  8
0
100
AcDbEllipse
 10
1345.49778391
 20
-956.71958622
 30
0.0
 11
5.78758099
 21
-6.56250000
 31
0.0
 40
0.88191710
 41
3.14159265
 42
6.28318531
  0
ELLIPSE
  5
31A
100
AcDbEntity
  8
0
100
AcDbEllipse
 10
1345.49778391
 20
-956.71958622
 30
0.0
 11
5.78758099
 21
-6.56250000
 31
0.0
 40
0.88191710
 41
6.28318531
 42
3.14159265
  0
ELLIPSE
  5
31B
100
AcDbEntity
  8
0
100
AcDbEllipse
 10
1350.80108477
 20
-952.04251449
 30
0.0
 11
5.78758099
 21
-6.56250000
 31
0.0
 40
0.88191710
 41
3.61751910
 42
5.80725887
  0
ELLIPSE
  5
31C
100
AcDbEntity
  8
0
100
AcDbEllipse
 10
1275.33613963
 20
-947.88004992
 30
0.0
 11
5.78758099
 21
-6.56250000
 31
0.0
 40
0.88191710
 41
3.14159265
 42
6.28318531
  0
ELLIPSE
  5
31D
100
AcDbEntity
  8
0
100
AcDbEllipse
 10
1275.33613963
 20
-947.88004992
 30
0.0
 11
5.78758099
 21
-6.56250000
 31
0.0
 40
0.88191710
 41
6.28318531
 42
3.14159265
  0
ELLIPSE
  5
31E
100
AcDbEntity
  8
0
100
AcDbEllipse
 10
1280.63944049
 20
-943.20297818
 30
0.0
 11
5.78758099
 21
-6.56250000
 31
0.0
 40
0.88191710
 41
3.61751910
 42
5.80725887
  0
ELLIPSE
  5
31F
100
AcDbEntity
  8
0
100
AcDbEllipse
 10
1225.72436517
 20
-991.63352235
 30
0.0
 11
5.78758099
 21
-6.56250000
 31
0.0
 40
0.88191710
 41
3.14159265
 42
6.28318531
  0
ELLIPSE
  5
320
100
AcDbEntity
  8
0
100
AcDbEllipse
 10
1225.72436517
 20
-991.63352235
 30
0.0
 11
5.78758099
 21
-6.56250000
 31
0.0
 40
0.88191710
 41
0.00000000
 42
3.14159265
  0
ELLIPSE
  5
321
100
AcDbEntity
  8
0
100
AcDbEllipse
 10
1231.02766603
 20
-986.95645062
 30
0.0
 11
5.78758099
 21
-6.56250000
 31
0.0
 40
0.88191710
 41
3.61751910
 42
5.80725887
  0
ELLIPSE
  5
322
100
AcDbEntity
  8
0
100
AcDbEllipse
 10
1310.41696177
 20
-1037.66193177
 30
0.0
 11
74.41175562
 21
-84.37500000
 31
0.0
 40
0.88191710
 41
6.28318531
 42
3.14159265
  0
LINE
  5
323
100
AcDbEntity
  8
0
100
AcDbLine
 10
1390.13201825
 20
-1117.35986004
 30
0.0
 11
1384.82871739
 21
-1122.03693177
 31
0.0
  0
ELLIPSE
  5
324
100
AcDbEntity
  8
0
100
AcDbEllipse
 10
1315.72026263
 20
-1032.98486004
 30
0.0
 11
74.41175562
 21
-84.37500000
 31
0.0
 40
0.88191710
 41
6.28318531
 42
1.19703334
  0
ELLIPSE
  5
325
100
AcDbEntity
  8
0
100
AcDbEllipse
 10
1315.72026263
 20
-1032.98486004
 30
0.0
 11
74.41175562
 21
-84.37500000
 31
0.0
 40
0.88191710
 41
1.94455932
 42
3.14159265
  0
LINE
  5
326
100
AcDbEntity
  8
0
100
AcDbLine
 10
1241.30850700
 20
-948.60986004
 30
0.0
 11
1236.00520614
 21
-953.28693177
 31
0.0
  0
ELLIPSE
  5
327
100
AcDbEntity
  8
0
100
AcDbEllipse
 10
1310.41696177
 20
-1037.66193177
 30
0.0
 11
74.41175562
 21
-84.37500000
 31
0.0
 40
0.88191710
 41
3.14159265
 42
0.00000000
  0
ENDBLK
  5
328
100
AcDbEntity
  8
0
100
AcDbBlockEnd
  0
BLOCK
  5
329
100
AcDbEntity
  8
0
100
AcDbBlockBegin
  2
ANS3D06_00056
 70
    64
 10
0.0
 20
0.0
 30
0.0
  3
ANS3D06_00056
  0
INSERT
  5
32A
100
AcDbEntity
  8
0
100
AcDbBlockReference
  2
FIG3D06_00057
 10
0.0
 20
0.0
 30
0.0
  0
ENDBLK
  5
32B
100
AcDbEntity
  8
0
100
AcDbBlockEnd
  0
BLOCK
  5
32C
100
AcDbEntity
  8
0
100
AcDbBlockBegin
  2
FIG3D06_00057
 70
    64
 10
0.0
 20
0.0
 30
0.0
  3
FIG3D06_00057
  0
INSERT
  5
32D
100
AcDbEntity
  8
0
100
AcDbBlockReference
  2
JR80_00058
 10
0.0
 20
0.0
 30
0.0
  0
ENDBLK
  5
32E
100
AcDbEntity
  8
0
100
AcDbBlockEnd
  0
BLOCK
  5
32F
100
AcDbEntity
  8
0
100
AcDbBlockBegin
  2
JR80_00058
 70
    64
 10
0.0
 20
0.0
 30
0.0
  3
JR80_00058
  0
INSERT
  5
330
100
AcDbEntity
  8
0
100
AcDbBlockReference
  2
GEHÄUSE_00059
 10
0.0
 20
0.0
 30
0.0
  0
INSERT
  5
331
100
AcDbEntity
  8
0
100
AcDbBlockReference
  2
WELLE_00061
 10
0.0
 20
0.0
 30
0.0
  0
INSERT
  5
332
100
AcDbEntity
  8
0
100
AcDbBlockReference
  2
FLIEHGEWICHT_00070
 10
0.0
 20
0.0
 30
0.0
  0
INSERT
  5
333
100
AcDbEntity
  8
0
100
AcDbBlockReference
  2
SCHUTZHAUBE_00081
 10
0.0
 20
0.0
 30
0.0
  0
INSERT
  5
334
100
AcDbEntity
  8
0
100
AcDbBlockReference
  2
ANSCHLUßFLANSCH_00086
 10
0.0
 20
0.0
 30
0.0
  0
ENDBLK
  5
335
100
AcDbEntity
  8
0
100
AcDbBlockEnd
  0
BLOCK
  5
336
100
AcDbEntity
  8
0
100
AcDbBlockBegin
  2
GEHÄUSE_00059
 70
    64
 10
0.0
 20
0.0
 30
0.0
  3
GEHÄUSE_00059
  0
INSERT
  5
337
100
AcDbEntity
  8
0
100
AcDbBlockReference
  2
_GEHÄUSE_00060
 10
498.24588175
 20
940.08385940
 30
0.0
  0
ENDBLK
  5
338
100
AcDbEntity
  8
0
100
AcDbBlockEnd
  0
BLOCK
  5
339
100
AcDbEntity
  8
0
100
AcDbBlockBegin
  2
_GEHÄUSE_00060
 70
    64
 10
498.24588175
 20
940.08385940
 30
0.0
  3
_GEHÄUSE_00060
  0
CIRCLE
  5
33A
100
AcDbEntity
  8
0
100
AcDbCircle
 10
498.24588175
 20
923.58385940
 30
0.0
 40
16.50000000
  0
CIRCLE
  5
33B
100
AcDbEntity
  8
0
100
AcDbCircle
 10
-101.75411825
 20
923.58385940
 30
0.0
 40
16.50000000
  0
CIRCLE
  5
33C
100
AcDbEntity
  8
0
100
AcDbCircle
 10
18.24588175
 20
923.58385940
 30
0.0
 40
16.50000000
  0
CIRCLE
  5
33D
100
AcDbEntity
  8
0
100
AcDbCircle
 10
378.24588175
 20
923.58385940
 30
0.0
 40
16.50000000
  0
POLYLINE
  5
33E
100
AcDbEntity
  8
0
100
AcDb2dPolyline
 66
     1
  0
VERTEX
  5
33F
100
AcDbEntity
  8
0
100
AcDbVertex
100
AcDb2dVertex
 10
-189.25411825
 20
976.58385940
 30
0.0
  0
VERTEX
  5
340
100
AcDbEntity
  8
0
100
AcDbVertex
100
AcDb2dVertex
 10
585.74588175
 20
976.58385940
 30
0.0
  0
VERTEX
  5
341
100
AcDbEntity
  8
0
100
AcDbVertex
100
AcDb2dVertex
 10
585.74588175
 20
888.58385940
 30
0.0
  0
VERTEX
  5
342
100
AcDbEntity
  8
0
100
AcDbVertex
100
AcDb2dVertex
 10
-189.25411825
 20
888.58385940
 30
0.0
  0
VERTEX
  5
343
100
AcDbEntity
  8
0
100
AcDbVertex
100
AcDb2dVertex
 10
-189.25411825
 20
976.58385940
 30
0.0
  0
SEQEND
  5
344
100
AcDbEntity
  8
0
  0
CIRCLE
  5
345
100
AcDbEntity
  8
0
100
AcDbCircle
 10
498.24588175
 20
1223.58385940
 30
0.0
 40
16.50000000
  0
CIRCLE
  5
346
100
AcDbEntity
  8
0
100
AcDbCircle
 10
378.24588175
 20
1223.58385940
 30
0.0
 40
16.50000000
  0
CIRCLE
  5
347
100
AcDbEntity
  8
0
100
AcDbCircle
 10
-101.75411825
 20
1223.58385940
 30
0.0
 40
16.50000000
  0
CIRCLE
  5
348
100
AcDbEntity
  8
0
100
AcDbCircle
 10
18.24588175
 20
1223.58385940
 30
0.0
 40
16.50000000
  0
POLYLINE
  5
349
100
AcDbEntity
  8
0
100
AcDb2dPolyline
 66
     1
  0
VERTEX
  5
34A
100
AcDbEntity
  8
0
100
AcDbVertex
100
AcDb2dVertex
 10
585.74588175
 20
1258.58385940
 30
0.0
  0
VERTEX
  5
34B
100
AcDbEntity
  8
0
100
AcDbVertex
100
AcDb2dVertex
 10
585.74588175
 20
1170.58385940
 30
0.0
  0
VERTEX
  5
34C
100
AcDbEntity
  8
0
100
AcDbVertex
100
AcDb2dVertex
 10
-189.25411825
 20
1170.58385940
 30
0.0
  0
VERTEX
  5
34D
100
AcDbEntity
  8
0
100
AcDbVertex
100
AcDb2dVertex
 10
-189.25411825
 20
1258.58385940
 30
0.0
  0
VERTEX
  5
34E
100
AcDbEntity
  8
0
100
AcDbVertex
100
AcDb2dVertex
 10
585.74588175
 20
1258.58385940
 30
0.0
  0
SEQEND
  5
34F
100
AcDbEntity
  8
0
  0
LINE
  5
350
100
AcDbEntity
  8
0
100
AcDbLine
 10
585.74588175
 20
976.58385940
 30
0.0
 11
585.74588175
 21
1170.58385940
 31
0.0
  0
LINE
  5
351
100
AcDbEntity
  8
0
100
AcDbLine
 10
-189.25411825
 20
1170.58385940
 30
0.0
 11
-189.25411825
 21
976.58385940
 31
0.0
  0
ENDBLK
  5
352
100
AcDbEntity
  8
0
100
AcDbBlockEnd
  0
BLOCK
  5
353
100
AcDbEntity
  8
0
100
AcDbBlockBegin
  2
WELLE_00061
 70
    64
 10
0.0
 20
0.0
 30
0.0
  3
WELLE_00061
  0
INSERT
  5
354
100
AcDbEntity
  8
0
100
AcDbBlockReference
  2
WELLE_00062
 10
0.0
 20
0.0
 30
0.0
  0
INSERT
  5
355
100
AcDbEntity
  8
0
100
AcDbBlockReference
  2
WELLE_00064
 10
0.0
 20
0.0
 30
0.0
  0
INSERT
  5
356
100
AcDbEntity
  8
0
100
AcDbBlockReference
  2
WELLE_00066
 10
0.0
 20
0.0
 30
0.0
  0
INSERT
  5
357
100
AcDbEntity
  8
0
100
AcDbBlockReference
  2
WELLE_00068
 10
0.0
 20
0.0
 30
0.0
  0
ENDBLK
  5
358
100
AcDbEntity
  8
0
100
AcDbBlockEnd
  0
BLOCK
  5
359
100
AcDbEntity
  8
0
100
AcDbBlockBegin
  2
WELLE_00062
 70
    64
 10
0.0
 20
0.0
 30
0.0
  3
WELLE_00062
  0
INSERT
  5
35A
100
AcDbEntity
  8
0
100
AcDbBlockReference
  2
_WELLE_00063
 10
338.24588175
 20
888.58385940
 30
0.0
  0
ENDBLK
  5
35B
100
AcDbEntity
  8
0
100
AcDbBlockEnd
  0
BLOCK
  5
35C
100
AcDbEntity
  8
0
100
AcDbBlockBegin
  2
_WELLE_00063
 70
    64
 10
338.24588175
 20
888.58385940
 30
0.0
  3
_WELLE_00063
  0
LINE
  5
35D
100
AcDbEntity
  8
0
100
AcDbLine
 10
338.24588175
 20
888.58385940
 30
0.0
 11
438.24588175
 21
888.58385940
 31
0.0
  0
LINE
  5
35E
100
AcDbEntity
  8
0
100
AcDbLine
 10
438.24588175
 20
739.08385940
 30
0.0
 11
438.24588175
 21
888.58385940
 31
0.0
  0
LINE
  5
35F
100
AcDbEntity
  8
0
100
AcDbLine
 10
438.24588175
 20
613.58385940
 30
0.0
 11
438.24588175
 21
636.58385940
 31
0.0
  0
LINE
  5
360
100
AcDbEntity
  8
0
100
AcDbLine
 10
438.24588175
 20
613.58385940
 30
0.0
 11
338.24588175
 21
613.58385940
 31
0.0
  0
LINE
  5
361
100
AcDbEntity
  8
0
100
AcDbLine
 10
338.24588175
 20
739.08385940
 30
0.0
 11
338.24588175
 21
888.58385940
 31
0.0
  0
LINE
  5
362
100
AcDbEntity
  8
0
100
AcDbLine
 10
338.24588175
 20
613.58385940
 30
0.0
 11
338.24588175
 21
636.58385940
 31
0.0
  0
ENDBLK
  5
363
100
AcDbEntity
  8
0
100
AcDbBlockEnd
  0
BLOCK
  5
364
100
AcDbEntity
  8
0
100
AcDbBlockBegin
  2
WELLE_00064
 70
    64
 10
0.0
 20
0.0
 30
0.0
  3
WELLE_00064
  0
INSERT
  5
365
100
AcDbEntity
  8
0
100
AcDbBlockReference
  2
_WELLE_00065
 10
-41.75411825
 20
888.58385940
 30
0.0
  0
ENDBLK
  5
366
100
AcDbEntity
  8
0
100
AcDbBlockEnd
  0
BLOCK
  5
367
100
AcDbEntity
  8
0
100
AcDbBlockBegin
  2
_WELLE_00065
 70
    64
 10
-41.75411825
 20
888.58385940
 30
0.0
  3
_WELLE_00065
  0
LINE
  5
368
100
AcDbEntity
  8
0
100
AcDbLine
 10
-41.75411825
 20
888.58385940
 30
0.0
 11
58.24588175
 21
888.58385940
 31
0.0
  0
LINE
  5
369
100
AcDbEntity
  8
0
100
AcDbLine
 10
58.24588175
 20
864.58385940
 30
0.0
 11
58.24588175
 21
888.58385940
 31
0.0
  0
LINE
  5
36A
100
AcDbEntity
  8
0
100
AcDbLine
 10
58.24588175
 20
613.58385940
 30
0.0
 11
58.24588175
 21
762.08385940
 31
0.0
  0
LINE
  5
36B
100
AcDbEntity
  8
0
100
AcDbLine
 10
58.24588175
 20
613.58385940
 30
0.0
 11
-41.75411825
 21
613.58385940
 31
0.0
  0
LINE
  5
36C
100
AcDbEntity
  8
0
100
AcDbLine
 10
-41.75411825
 20
864.58385940
 30
0.0
 11
-41.75411825
 21
888.58385940
 31
0.0
  0
LINE
  5
36D
100
AcDbEntity
  8
0
100
AcDbLine
 10
-41.75411825
 20
613.58385940
 30
0.0
 11
-41.75411825
 21
762.08385940
 31
0.0
  0
ENDBLK
  5
36E
100
AcDbEntity
  8
0
100
AcDbBlockEnd
  0
BLOCK
  5
36F
100
AcDbEntity
  8
0
100
AcDbBlockBegin
  2
WELLE_00066
 70
    64
 10
0.0
 20
0.0
 30
0.0
  3
WELLE_00066
  0
INSERT
  5
370
100
AcDbEntity
  8
0
100
AcDbBlockReference
  2
_WELLE_00067
 10
438.24588175
 20
1533.58385940
 30
0.0
  0
ENDBLK
  5
371
100
AcDbEntity
  8
0
100
AcDbBlockEnd
  0
BLOCK
  5
372
100
AcDbEntity
  8
0
100
AcDbBlockBegin
  2
_WELLE_00067
 70
    64
 10
438.24588175
 20
1533.58385940
 30
0.0
  3
_WELLE_00067
  0
LINE
  5
373
100
AcDbEntity
  8
0
100
AcDbLine
 10
438.24588175
 20
1533.58385940
 30
0.0
 11
338.24588175
 21
1533.58385940
 31
0.0
  0
LINE
  5
374
100
AcDbEntity
  8
0
100
AcDbLine
 10
338.24588175
 20
1510.58385940
 30
0.0
 11
338.24588175
 21
1533.58385940
 31
0.0
  0
LINE
  5
375
100
AcDbEntity
  8
0
100
AcDbLine
 10
338.24588175
 20
1258.58385940
 30
0.0
 11
338.24588175
 21
1408.08385940
 31
0.0
  0
LINE
  5
376
100
AcDbEntity
  8
0
100
AcDbLine
 10
438.24588175
 20
1258.58385940
 30
0.0
 11
338.24588175
 21
1258.58385940
 31
0.0
  0
LINE
  5
377
100
AcDbEntity
  8
0
100
AcDbLine
 10
438.24588175
 20
1510.58385940
 30
0.0
 11
438.24588175
 21
1533.58385940
 31
0.0
  0
LINE
  5
378
100
AcDbEntity
  8
0
100
AcDbLine
 10
438.24588175
 20
1258.58385940
 30
0.0
 11
438.24588175
 21
1408.08385940
 31
0.0
  0
ENDBLK
  5
379
100
AcDbEntity
  8
0
100
AcDbBlockEnd
  0
BLOCK
  5
37A
100
AcDbEntity
  8
0
100
AcDbBlockBegin
  2
WELLE_00068
 70
    64
 10
0.0
 20
0.0
 30
0.0
  3
WELLE_00068
  0
INSERT
  5
37B
100
AcDbEntity
  8
0
100
AcDbBlockReference
  2
_WELLE_00069
 10
58.24588175
 20
1533.58385940
 30
0.0
  0
ENDBLK
  5
37C
100
AcDbEntity
  8
0
100
AcDbBlockEnd
  0
BLOCK
  5
37D
100
AcDbEntity
  8
0
100
AcDbBlockBegin
  2
_WELLE_00069
 70
    64
 10
58.24588175
 20
1533.58385940
 30
0.0
  3
_WELLE_00069
  0
LINE
  5
37E
100
AcDbEntity
  8
0
100
AcDbLine
 10
58.24588175
 20
1533.58385940
 30
0.0
 11
-41.75411825
 21
1533.58385940
 31
0.0
  0
LINE
  5
37F
100
AcDbEntity
  8
0
100
AcDbLine
 10
-41.75411825
 20
1385.08385940
 30
0.0
 11
-41.75411825
 21
1533.58385940
 31
0.0
  0
LINE
  5
380
100
AcDbEntity
  8
0
100
AcDbLine
 10
-41.75411825
 20
1258.58385940
 30
0.0
 11
-41.75411825
 21
1282.58385940
 31
0.0
  0
LINE
  5
381
100
AcDbEntity
  8
0
100
AcDbLine
 10
58.24588175
 20
1258.58385940
 30
0.0
 11
-41.75411825
 21
1258.58385940
 31
0.0
  0
LINE
  5
382
100
AcDbEntity
  8
0
100
AcDbLine
 10
58.24588175
 20
1385.08385940
 30
0.0
 11
58.24588175
 21
1533.58385940
 31
0.0
  0
LINE
  5
383
100
AcDbEntity
  8
0
100
AcDbLine
 10
58.24588175
 20
1258.58385940
 30
0.0
 11
58.24588175
 21
1282.58385940
 31
0.0
  0
ENDBLK
  5
384
100
AcDbEntity
  8
0
100
AcDbBlockEnd
  0
BLOCK
  5
385
100
AcDbEntity
  8
0
100
AcDbBlockBegin
  2
FLIEHGEWICHT_00070
 70
    64
 10
0.0
 20
0.0
 30
0.0
  3
FLIEHGEWICHT_00070
  0
INSERT
  5
386
100
AcDbEntity
  8
0
100
AcDbBlockReference
  2
FLIEHGEWICHT_00071
 10
0.0
 20
0.0
 30
0.0
  0
INSERT
  5
387
100
AcDbEntity
  8
0
100
AcDbBlockReference
  2
FLIEHGEWICHT_00076
 10
0.0
 20
0.0
 30
0.0
  0
ENDBLK
  5
388
100
AcDbEntity
  8
0
100
AcDbBlockEnd
  0
BLOCK
  5
389
100
AcDbEntity
  8
0
100
AcDbBlockBegin
  2
FLIEHGEWICHT_00071
 70
    64
 10
0.0
 20
0.0
 30
0.0
  3
FLIEHGEWICHT_00071
  0
INSERT
  5
38A
100
AcDbEntity
  8
0
100
AcDbBlockReference
  2
FLIEHGEWICHT_00072
 10
0.0
 20
0.0
 30
0.0
  0
INSERT
  5
38B
100
AcDbEntity
  8
0
100
AcDbBlockReference
  2
FLIEHGEWICHT_00074
 10
0.0
 20
0.0
 30
0.0
  0
ENDBLK
  5
38C
100
AcDbEntity
  8
0
100
AcDbBlockEnd
  0
BLOCK
  5
38D
100
AcDbEntity
  8
0
100
AcDbBlockBegin
  2
FLIEHGEWICHT_00072
 70
    64
 10
0.0
 20
0.0
 30
0.0
  3
FLIEHGEWICHT_00072
  0
INSERT
  5
38E
100
AcDbEntity
  8
0
100
AcDbBlockReference
  2
_FLIEHGEWICHT_00073
 10
63.16412933
 20
1385.08385940
 30
0.0
  0
ENDBLK
  5
38F
100
AcDbEntity
  8
0
100
AcDbBlockEnd
  0
BLOCK
  5
390
100
AcDbEntity
  8
0
100
AcDbBlockBegin
  2
_FLIEHGEWICHT_00073
 70
    64
 10
63.16412933
 20
1385.08385940
 30
0.0
  3
_FLIEHGEWICHT_00073
  0
LINE
  5
391
100
AcDbEntity
  8
0
100
AcDbLine
 10
63.16412933
 20
1385.08385940
 30
0.0
 11
93.24588175
 21
1385.08385940
 31
0.0
  0
LINE
  5
392
100
AcDbEntity
  8
0
100
AcDbLine
 10
93.24588175
 20
1282.58385940
 30
0.0
 11
93.24588175
 21
1385.08385940
 31
0.0
  0
LINE
  5
393
100
AcDbEntity
  8
0
100
AcDbLine
 10
63.16412933
 20
1282.58385940
 30
0.0
 11
93.24588175
 21
1282.58385940
 31
0.0
  0
LINE
  5
394
100
AcDbEntity
  8
0
100
AcDbLine
 10
63.16412933
 20
1282.58385940
 30
0.0
 11
63.16412933
 21
1385.08385940
 31
0.0
  0
LINE
  5
395
100
AcDbEntity
  8
0
100
AcDbLine
 10
-43.50127519
 20
1385.08385940
 30
0.0
 11
63.16412933
 21
1385.08385940
 31
0.0
  0
LINE
  5
396
100
AcDbEntity
  8
0
100
AcDbLine
 10
-43.50127519
 20
1282.58385940
 30
0.0
 11
-43.50127519
 21
1385.08385940
 31
0.0
  0
LINE
  5
397
100
AcDbEntity
  8
0
100
AcDbLine
 10
-43.50127519
 20
1282.58385940
 30
0.0
 11
63.16412933
 21
1282.58385940
 31
0.0
  0
LINE
  5
398
100
AcDbEntity
  8
0
100
AcDbLine
 10
-289.75411825
 20
1282.58385940
 30
0.0
 11
-43.50127519
 21
1282.58385940
 31
0.0
  0
POLYLINE
  5
399
100
AcDbEntity
  8
0
100
AcDb2dPolyline
 66
     1
  0
VERTEX
  5
39A
100
AcDbEntity
  8
0
100
AcDbVertex
100
AcDb2dVertex
 10
-289.75411825
 20
1282.58385940
 30
0.0
  0
VERTEX
  5
39B
100
AcDbEntity
  8
0
100
AcDbVertex
100
AcDb2dVertex
 10
-289.75411825
 20
1385.08385940
 30
0.0
  0
VERTEX
  5
39C
100
AcDbEntity
  8
0
100
AcDbVertex
100
AcDb2dVertex
 10
-43.50127519
 20
1385.08385940
 30
0.0
  0
SEQEND
  5
39D
100
AcDbEntity
  8
0
  0
ENDBLK
  5
39E
100
AcDbEntity
  8
0
100
AcDbBlockEnd
  0
BLOCK
  5
39F
100
AcDbEntity
  8
0
100
AcDbBlockBegin
  2
FLIEHGEWICHT_00074
 70
    64
 10
0.0
 20
0.0
 30
0.0
  3
FLIEHGEWICHT_00074
  0
INSERT
  5
3A0
100
AcDbEntity
  8
0
100
AcDbBlockReference
  2
_FLIEHGEWICHT_00075
 10
333.32763418
 20
1408.08385940
 30
0.0
  0
ENDBLK
  5
3A1
100
AcDbEntity
  8
0
100
AcDbBlockEnd
  0
BLOCK
  5
3A2
100
AcDbEntity
  8
0
100
AcDbBlockBegin
  2
_FLIEHGEWICHT_00075
 70
    64
 10
333.32763418
 20
1408.08385940
 30
0.0
  3
_FLIEHGEWICHT_00075
  0
POLYLINE
  5
3A3
100
AcDbEntity
  8
0
100
AcDb2dPolyline
 66
     1
  0
VERTEX
  5
3A4
100
AcDbEntity
  8
0
100
AcDbVertex
100
AcDb2dVertex
 10
333.32763418
 20
1408.08385940
 30
0.0
  0
VERTEX
  5
3A5
100
AcDbEntity
  8
0
100
AcDbVertex
100
AcDb2dVertex
 10
333.32763418
 20
1510.58385940
 30
0.0
  0
VERTEX
  5
3A6
100
AcDbEntity
  8
0
100
AcDbVertex
100
AcDb2dVertex
 10
439.99303870
 20
1510.58385940
 30
0.0
  0
SEQEND
  5
3A7
100
AcDbEntity
  8
0
  0
LINE
  5
3A8
100
AcDbEntity
  8
0
100
AcDbLine
 10
439.99303870
 20
1408.08385940
 30
0.0
 11
439.99303870
 21
1510.58385940
 31
0.0
  0
LINE
  5
3A9
100
AcDbEntity
  8
0
100
AcDbLine
 10
333.32763418
 20
1408.08385940
 30
0.0
 11
439.99303870
 21
1408.08385940
 31
0.0
  0
LINE
  5
3AA
100
AcDbEntity
  8
0
100
AcDbLine
 10
303.24588175
 20
1408.08385940
 30
0.0
 11
333.32763418
 21
1408.08385940
 31
0.0
  0
POLYLINE
  5
3AB
100
AcDbEntity
  8
0
100
AcDb2dPolyline
 66
     1
  0
VERTEX
  5
3AC
100
AcDbEntity
  8
0
100
AcDbVertex
100
AcDb2dVertex
 10
303.24588175
 20
1408.08385940
 30
0.0
  0
VERTEX
  5
3AD
100
AcDbEntity
  8
0
100
AcDbVertex
100
AcDb2dVertex
 10
303.24588175
 20
1510.58385940
 30
0.0
  0
VERTEX
  5
3AE
100
AcDbEntity
  8
0
100
AcDbVertex
100
AcDb2dVertex
 10
333.32763418
 20
1510.58385940
 30
0.0
  0
SEQEND
  5
3AF
100
AcDbEntity
  8
0
  0
POLYLINE
  5
3B0
100
AcDbEntity
  8
0
100
AcDb2dPolyline
 66
     1
  0
VERTEX
  5
3B1
100
AcDbEntity
  8
0
100
AcDbVertex
100
AcDb2dVertex
 10
439.99303870
 20
1408.08385940
 30
0.0
  0
VERTEX
  5
3B2
100
AcDbEntity
  8
0
100
AcDbVertex
100
AcDb2dVertex
 10
686.24588175
 20
1408.08385940
 30
0.0
  0
VERTEX
  5
3B3
100
AcDbEntity
  8
0
100
AcDbVertex
100
AcDb2dVertex
 10
686.24588175
 20
1510.58385940
 30
0.0
  0
SEQEND
  5
3B4
100
AcDbEntity
  8
0
  0
LINE
  5
3B5
100
AcDbEntity
  8
0
100
AcDbLine
 10
439.99303870
 20
1510.58385940
 30
0.0
 11
686.24588175
 21
1510.58385940
 31
0.0
  0
ENDBLK
  5
3B6
100
AcDbEntity
  8
0
100
AcDbBlockEnd
  0
BLOCK
  5
3B7
100
AcDbEntity
  8
0
100
AcDbBlockBegin
  2
FLIEHGEWICHT_00076
 70
    64
 10
0.0
 20
0.0
 30
0.0
  3
FLIEHGEWICHT_00076
  0
INSERT
  5
3B8
100
AcDbEntity
  8
0
100
AcDbBlockReference
  2
FLIEHGEWICHT_00077
 10
0.0
 20
0.0
 30
0.0
  0
INSERT
  5
3B9
100
AcDbEntity
  8
0
100
AcDbBlockReference
  2
FLIEHGEWICHT_00079
 10
0.0
 20
0.0
 30
0.0
  0
ENDBLK
  5
3BA
100
AcDbEntity
  8
0
100
AcDbBlockEnd
  0
BLOCK
  5
3BB
100
AcDbEntity
  8
0
100
AcDbBlockBegin
  2
FLIEHGEWICHT_00077
 70
    64
 10
0.0
 20
0.0
 30
0.0
  3
FLIEHGEWICHT_00077
  0
INSERT
  5
3BC
100
AcDbEntity
  8
0
100
AcDbBlockReference
  2
_FLIEHGEWICHT_00078
 10
-289.75411825
 20
762.08385940
 30
0.0
  0
ENDBLK
  5
3BD
100
AcDbEntity
  8
0
100
AcDbBlockEnd
  0
BLOCK
  5
3BE
100
AcDbEntity
  8
0
100
AcDbBlockBegin
  2
_FLIEHGEWICHT_00078
 70
    64
 10
-289.75411825
 20
762.08385940
 30
0.0
  3
_FLIEHGEWICHT_00078
  0
LINE
  5
3BF
100
AcDbEntity
  8
0
100
AcDbLine
 10
-289.75411825
 20
762.08385940
 30
0.0
 11
-43.50127519
 21
762.08385940
 31
0.0
  0
LINE
  5
3C0
100
AcDbEntity
  8
0
100
AcDbLine
 10
-43.50127519
 20
864.58385940
 30
0.0
 11
-43.50127519
 21
762.08385940
 31
0.0
  0
LINE
  5
3C1
100
AcDbEntity
  8
0
100
AcDbLine
 10
-289.75411825
 20
864.58385940
 30
0.0
 11
-43.50127519
 21
864.58385940
 31
0.0
  0
LINE
  5
3C2
100
AcDbEntity
  8
0
100
AcDbLine
 10
-289.75411825
 20
864.58385940
 30
0.0
 11
-289.75411825
 21
762.08385940
 31
0.0
  0
POLYLINE
  5
3C3
100
AcDbEntity
  8
0
100
AcDb2dPolyline
 66
     1
  0
VERTEX
  5
3C4
100
AcDbEntity
  8
0
100
AcDbVertex
100
AcDb2dVertex
 10
-43.50127519
 20
864.58385940
 30
0.0
  0
VERTEX
  5
3C5
100
AcDbEntity
  8
0
100
AcDbVertex
100
AcDb2dVertex
 10
63.16412933
 20
864.58385940
 30
0.0
  0
VERTEX
  5
3C6
100
AcDbEntity
  8
0
100
AcDbVertex
100
AcDb2dVertex
 10
63.16412933
 20
762.08385940
 30
0.0
  0
SEQEND
  5
3C7
100
AcDbEntity
  8
0
  0
POLYLINE
  5
3C8
100
AcDbEntity
  8
0
100
AcDb2dPolyline
 66
     1
  0
VERTEX
  5
3C9
100
AcDbEntity
  8
0
100
AcDbVertex
100
AcDb2dVertex
 10
-43.50127519
 20
762.08385940
 30
0.0
  0
VERTEX
  5
3CA
100
AcDbEntity
  8
0
100
AcDbVertex
100
AcDb2dVertex
 10
63.16412933
 20
762.08385940
 30
0.0
  0
VERTEX
  5
3CB
100
AcDbEntity
  8
0
100
AcDbVertex
100
AcDb2dVertex
 10
93.24588175
 20
762.08385940
 30
0.0
  0
SEQEND
  5
3CC
100
AcDbEntity
  8
0
  0
LINE
  5
3CD
100
AcDbEntity
  8
0
100
AcDbLine
 10
93.24588175
 20
864.58385940
 30
0.0
 11
93.24588175
 21
762.08385940
 31
0.0
  0
LINE
  5
3CE
100
AcDbEntity
  8
0
100
AcDbLine
 10
63.16412933
 20
864.58385940
 30
0.0
 11
93.24588175
 21
864.58385940
 31
0.0
  0
ENDBLK
  5
3CF
100
AcDbEntity
  8
0
100
AcDbBlockEnd
  0
BLOCK
  5
3D0
100
AcDbEntity
  8
0
100
AcDbBlockBegin
  2
FLIEHGEWICHT_00079
 70
    64
 10
0.0
 20
0.0
 30
0.0
  3
FLIEHGEWICHT_00079
  0
INSERT
  5
3D1
100
AcDbEntity
  8
0
100
AcDbBlockReference
  2
_FLIEHGEWICHT_00080
 10
303.24588175
 20
636.58385940
 30
0.0
  0
ENDBLK
  5
3D2
100
AcDbEntity
  8
0
100
AcDbBlockEnd
  0
BLOCK
  5
3D3
100
AcDbEntity
  8
0
100
AcDbBlockBegin
  2
_FLIEHGEWICHT_00080
 70
    64
 10
303.24588175
 20
636.58385940
 30
0.0
  3
_FLIEHGEWICHT_00080
  0
LINE
  5
3D4
100
AcDbEntity
  8
0
100
AcDbLine
 10
303.24588175
 20
636.58385940
 30
0.0
 11
333.32763418
 21
636.58385940
 31
0.0
  0
LINE
  5
3D5
100
AcDbEntity
  8
0
100
AcDbLine
 10
333.32763418
 20
739.08385940
 30
0.0
 11
333.32763418
 21
636.58385940
 31
0.0
  0
LINE
  5
3D6
100
AcDbEntity
  8
0
100
AcDbLine
 10
303.24588175
 20
739.08385940
 30
0.0
 11
333.32763418
 21
739.08385940
 31
0.0
  0
LINE
  5
3D7
100
AcDbEntity
  8
0
100
AcDbLine
 10
303.24588175
 20
739.08385940
 30
0.0
 11
303.24588175
 21
636.58385940
 31
0.0
  0
POLYLINE
  5
3D8
100
AcDbEntity
  8
0
100
AcDb2dPolyline
 66
     1
  0
VERTEX
  5
3D9
100
AcDbEntity
  8
0
100
AcDbVertex
100
AcDb2dVertex
 10
333.32763418
 20
739.08385940
 30
0.0
  0
VERTEX
  5
3DA
100
AcDbEntity
  8
0
100
AcDbVertex
100
AcDb2dVertex
 10
439.99303870
 20
739.08385940
 30
0.0
  0
VERTEX
  5
3DB
100
AcDbEntity
  8
0
100
AcDbVertex
100
AcDb2dVertex
 10
439.99303870
 20
636.58385940
 30
0.0
  0
SEQEND
  5
3DC
100
AcDbEntity
  8
0
  0
POLYLINE
  5
3DD
100
AcDbEntity
  8
0
100
AcDb2dPolyline
 66
     1
  0
VERTEX
  5
3DE
100
AcDbEntity
  8
0
100
AcDbVertex
100
AcDb2dVertex
 10
333.32763418
 20
636.58385940
 30
0.0
  0
VERTEX
  5
3DF
100
AcDbEntity
  8
0
100
AcDbVertex
100
AcDb2dVertex
 10
439.99303870
 20
636.58385940
 30
0.0
  0
VERTEX
  5
3E0
100
AcDbEntity
  8
0
100
AcDbVertex
100
AcDb2dVertex
 10
686.24588175
 20
636.58385940
 30
0.0
  0
SEQEND
  5
3E1
100
AcDbEntity
  8
0
  0
LINE
  5
3E2
100
AcDbEntity
  8
0
100
AcDbLine
 10
686.24588175
 20
739.08385940
 30
0.0
 11
686.24588175
 21
636.58385940
 31
0.0
  0
LINE
  5
3E3
100
AcDbEntity
  8
0
100
AcDbLine
 10
439.99303870
 20
739.08385940
 30
0.0
 11
686.24588175
 21
739.08385940
 31
0.0
  0
ENDBLK
  5
3E4
100
AcDbEntity
  8
0
100
AcDbBlockEnd
  0
BLOCK
  5
3E5
100
AcDbEntity
  8
0
100
AcDbBlockBegin
  2
SCHUTZHAUBE_00081
 70
    64
 10
0.0
 20
0.0
 30
0.0
  3
SCHUTZHAUBE_00081
  0
INSERT
  5
3E6
100
AcDbEntity
  8
0
100
AcDbBlockReference
  2
SCHUTZHAUBE_00082
 10
0.0
 20
0.0
 30
0.0
  0
INSERT
  5
3E7
100
AcDbEntity
  8
0
100
AcDbBlockReference
  2
SCHUTZHAUBE_00084
 10
0.0
 20
0.0
 30
0.0
  0
ENDBLK
  5
3E8
100
AcDbEntity
  8
0
100
AcDbBlockEnd
  0
BLOCK
  5
3E9
100
AcDbEntity
  8
0
100
AcDbBlockBegin
  2
SCHUTZHAUBE_00082
 70
    64
 10
0.0
 20
0.0
 30
0.0
  3
SCHUTZHAUBE_00082
  0
INSERT
  5
3EA
100
AcDbEntity
  8
0
100
AcDbBlockReference
  2
_SCHUTZHAUBE_00083
 10
-189.25411825
 20
888.58385940
 30
0.0
  0
ENDBLK
  5
3EB
100
AcDbEntity
  8
0
100
AcDbBlockEnd
  0
BLOCK
  5
3EC
100
AcDbEntity
  8
0
100
AcDbBlockBegin
  2
_SCHUTZHAUBE_00083
 70
    64
 10
-189.25411825
 20
888.58385940
 30
0.0
  3
_SCHUTZHAUBE_00083
  0
LINE
  5
3ED
100
AcDbEntity
  8
0
100
AcDbLine
 10
-189.25411825
 20
888.58385940
 30
0.0
 11
-234.75411825
 21
888.58385940
 31
0.0
  0
LINE
  5
3EE
100
AcDbEntity
  8
0
100
AcDbLine
 10
631.24588175
 20
888.58385940
 30
0.0
 11
585.74588175
 21
888.58385940
 31
0.0
  0
LINE
  5
3EF
100
AcDbEntity
  8
0
100
AcDbLine
 10
-237.58254537
 20
888.58385940
 30
0.0
 11
-237.58254537
 21
890.58385940
 31
0.0
  0
LINE
  5
3F0
100
AcDbEntity
  8
0
100
AcDbLine
 10
585.74588175
 20
890.58385940
 30
0.0
 11
634.07430888
 21
890.58385940
 31
0.0
  0
LINE
  5
3F1
100
AcDbEntity
  8
0
100
AcDbLine
 10
-237.58254537
 20
890.58385940
 30
0.0
 11
-189.25411825
 21
890.58385940
 31
0.0
  0
LINE
  5
3F2
100
AcDbEntity
  8
0
100
AcDbLine
 10
634.07430888
 20
890.58385940
 30
0.0
 11
634.07430888
 21
888.58385940
 31
0.0
  0
LINE
  5
3F3
100
AcDbEntity
  8
0
100
AcDbLine
 10
711.24588175
 20
888.58385940
 30
0.0
 11
631.24588175
 21
888.58385940
 31
0.0
  0
LINE
  5
3F4
100
AcDbEntity
  8
0
100
AcDbLine
 10
511.24588175
 20
739.08385940
 30
0.0
 11
511.24588175
 21
888.58385940
 31
0.0
  0
LINE
  5
3F5
100
AcDbEntity
  8
0
100
AcDbLine
 10
511.24588175
 20
600.58385940
 30
0.0
 11
511.24588175
 21
636.58385940
 31
0.0
  0
LINE
  5
3F6
100
AcDbEntity
  8
0
100
AcDbLine
 10
-114.75411825
 20
762.08385940
 30
0.0
 11
-114.75411825
 21
600.58385940
 31
0.0
  0
LINE
  5
3F7
100
AcDbEntity
  8
0
100
AcDbLine
 10
-114.75411825
 20
888.58385940
 30
0.0
 11
-114.75411825
 21
864.58385940
 31
0.0
  0
LINE
  5
3F8
100
AcDbEntity
  8
0
100
AcDbLine
 10
-234.75411825
 20
888.58385940
 30
0.0
 11
-314.75411825
 21
888.58385940
 31
0.0
  0
LINE
  5
3F9
100
AcDbEntity
  8
0
100
AcDbLine
 10
-316.75411825
 20
888.58385940
 30
0.0
 11
-316.75411825
 21
598.58385940
 31
0.0
  0
LINE
  5
3FA
100
AcDbEntity
  8
0
100
AcDbLine
 10
-314.75411825
 20
600.58385940
 30
0.0
 11
-316.75411825
 21
598.58385940
 31
0.0
  0
LINE
  5
3FB
100
AcDbEntity
  8
0
100
AcDbLine
 10
-314.75411825
 20
888.58385940
 30
0.0
 11
-314.75411825
 21
600.58385940
 31
0.0
  0
LINE
  5
3FC
100
AcDbEntity
  8
0
100
AcDbLine
 10
-314.75411825
 20
888.58385940
 30
0.0
 11
-316.75411825
 21
888.58385940
 31
0.0
  0
POLYLINE
  5
3FD
100
AcDbEntity
  8
0
100
AcDb2dPolyline
 66
     1
  0
VERTEX
  5
3FE
100
AcDbEntity
  8
0
100
AcDbVertex
100
AcDb2dVertex
 10
-314.75411825
 20
600.58385940
 30
0.0
  0
VERTEX
  5
3FF
100
AcDbEntity
  8
0
100
AcDbVertex
100
AcDb2dVertex
 10
711.24588175
 20
600.58385940
 30
0.0
  0
VERTEX
  5
400
100
AcDbEntity
  8
0
100
AcDbVertex
100
AcDb2dVertex
 10
713.24588175
 20
598.58385940
 30
0.0
  0
SEQEND
  5
401
100
AcDbEntity
  8
0
  0
POLYLINE
  5
402
100
AcDbEntity
  8
0
100
AcDb2dPolyline
 66
     1
  0
VERTEX
  5
403
100
AcDbEntity
  8
0
100
AcDbVertex
100
AcDb2dVertex
 10
-316.75411825
 20
598.58385940
 30
0.0
  0
VERTEX
  5
404
100
AcDbEntity
  8
0
100
AcDbVertex
100
AcDb2dVertex
 10
713.24588175
 20
598.58385940
 30
0.0
  0
VERTEX
  5
405
100
AcDbEntity
  8
0
100
AcDbVertex
100
AcDb2dVertex
 10
713.24588175
 20
888.58385940
 30
0.0
  0
VERTEX
  5
406
100
AcDbEntity
  8
0
100
AcDbVertex
100
AcDb2dVertex
 10
711.24588175
 20
888.58385940
 30
0.0
  0
SEQEND
  5
407
100
AcDbEntity
  8
0
  0
LINE
  5
408
100
AcDbEntity
  8
0
100
AcDbLine
 10
711.24588175
 20
600.58385940
 30
0.0
 11
711.24588175
 21
888.58385940
 31
0.0
  0
ENDBLK
  5
409
100
AcDbEntity
  8
0
100
AcDbBlockEnd
  0
BLOCK
  5
40A
100
AcDbEntity
  8
0
100
AcDbBlockBegin
  2
SCHUTZHAUBE_00084
 70
    64
 10
0.0
 20
0.0
 30
0.0
  3
SCHUTZHAUBE_00084
  0
INSERT
  5
40B
100
AcDbEntity
  8
0
100
AcDbBlockReference
  2
_SCHUTZHAUBE_00085
 10
-189.25411825
 20
1258.58385940
 30
0.0
  0
ENDBLK
  5
40C
100
AcDbEntity
  8
0
100
AcDbBlockEnd
  0
BLOCK
  5
40D
100
AcDbEntity
  8
0
100
AcDbBlockBegin
  2
_SCHUTZHAUBE_00085
 70
    64
 10
-189.25411825
 20
1258.58385940
 30
0.0
  3
_SCHUTZHAUBE_00085
  0
LINE
  5
40E
100
AcDbEntity
  8
0
100
AcDbLine
 10
-189.25411825
 20
1258.58385940
 30
0.0
 11
-234.75411825
 21
1258.58385940
 31
0.0
  0
LINE
  5
40F
100
AcDbEntity
  8
0
100
AcDbLine
 10
631.24588175
 20
1258.58385940
 30
0.0
 11
585.74588175
 21
1258.58385940
 31
0.0
  0
LINE
  5
410
100
AcDbEntity
  8
0
100
AcDbLine
 10
-237.58254537
 20
1258.58385940
 30
0.0
 11
-237.58254537
 21
1256.58385940
 31
0.0
  0
LINE
  5
411
100
AcDbEntity
  8
0
100
AcDbLine
 10
585.74588175
 20
1256.58385940
 30
0.0
 11
634.07430888
 21
1256.58385940
 31
0.0
  0
LINE
  5
412
100
AcDbEntity
  8
0
100
AcDbLine
 10
-237.58254537
 20
1256.58385940
 30
0.0
 11
-189.25411825
 21
1256.58385940
 31
0.0
  0
LINE
  5
413
100
AcDbEntity
  8
0
100
AcDbLine
 10
634.07430888
 20
1256.58385940
 30
0.0
 11
634.07430888
 21
1258.58385940
 31
0.0
  0
LINE
  5
414
100
AcDbEntity
  8
0
100
AcDbLine
 10
711.24588175
 20
1258.58385940
 30
0.0
 11
631.24588175
 21
1258.58385940
 31
0.0
  0
LINE
  5
415
100
AcDbEntity
  8
0
100
AcDbLine
 10
511.24588175
 20
1408.08385940
 30
0.0
 11
511.24588175
 21
1258.58385940
 31
0.0
  0
LINE
  5
416
100
AcDbEntity
  8
0
100
AcDbLine
 10
511.24588175
 20
1546.58385940
 30
0.0
 11
511.24588175
 21
1510.58385940
 31
0.0
  0
LINE
  5
417
100
AcDbEntity
  8
0
100
AcDbLine
 10
-114.75411825
 20
1385.08385940
 30
0.0
 11
-114.75411825
 21
1546.58385940
 31
0.0
  0
LINE
  5
418
100
AcDbEntity
  8
0
100
AcDbLine
 10
-114.75411825
 20
1258.58385940
 30
0.0
 11
-114.75411825
 21
1282.58385940
 31
0.0
  0
POLYLINE
  5
419
100
AcDbEntity
  8
0
100
AcDb2dPolyline
 66
     1
  0
VERTEX
  5
41A
100
AcDbEntity
  8
0
100
AcDbVertex
100
AcDb2dVertex
 10
-234.75411825
 20
1258.58385940
 30
0.0
  0
VERTEX
  5
41B
100
AcDbEntity
  8
0
100
AcDbVertex
100
AcDb2dVertex
 10
-314.75411825
 20
1258.58385940
 30
0.0
  0
VERTEX
  5
41C
100
AcDbEntity
  8
0
100
AcDbVertex
100
AcDb2dVertex
 10
-316.75411825
 20
1258.58385940
 30
0.0
  0
VERTEX
  5
41D
100
AcDbEntity
  8
0
100
AcDbVertex
100
AcDb2dVertex
 10
-316.75411825
 20
1548.58385940
 30
0.0
  0
SEQEND
  5
41E
100
AcDbEntity
  8
0
  0
LINE
  5
41F
100
AcDbEntity
  8
0
100
AcDbLine
 10
-314.75411825
 20
1546.58385940
 30
0.0
 11
-316.75411825
 21
1548.58385940
 31
0.0
  0
POLYLINE
  5
420
100
AcDbEntity
  8
0
100
AcDb2dPolyline
 66
     1
  0
VERTEX
  5
421
100
AcDbEntity
  8
0
100
AcDbVertex
100
AcDb2dVertex
 10
-314.75411825
 20
1258.58385940
 30
0.0
  0
VERTEX
  5
422
100
AcDbEntity
  8
0
100
AcDbVertex
100
AcDb2dVertex
 10
-314.75411825
 20
1546.58385940
 30
0.0
  0
VERTEX
  5
423
100
AcDbEntity
  8
0
100
AcDbVertex
100
AcDb2dVertex
 10
711.24588175
 20
1546.58385940
 30
0.0
  0
VERTEX
  5
424
100
AcDbEntity
  8
0
100
AcDbVertex
100
AcDb2dVertex
 10
713.24588175
 20
1548.58385940
 30
0.0
  0
SEQEND
  5
425
100
AcDbEntity
  8
0
  0
POLYLINE
  5
426
100
AcDbEntity
  8
0
100
AcDb2dPolyline
 66
     1
  0
VERTEX
  5
427
100
AcDbEntity
  8
0
100
AcDbVertex
100
AcDb2dVertex
 10
-316.75411825
 20
1548.58385940
 30
0.0
  0
VERTEX
  5
428
100
AcDbEntity
  8
0
100
AcDbVertex
100
AcDb2dVertex
 10
713.24588175
 20
1548.58385940
 30
0.0
  0
VERTEX
  5
429
100
AcDbEntity
  8
0
100
AcDbVertex
100
AcDb2dVertex
 10
713.24588175
 20
1258.58385940
 30
0.0
  0
VERTEX
  5
42A
100
AcDbEntity
  8
0
100
AcDbVertex
100
AcDb2dVertex
 10
711.24588175
 20
1258.58385940
 30
0.0
  0
SEQEND
  5
42B
100
AcDbEntity
  8
0
  0
LINE
  5
42C
100
AcDbEntity
  8
0
100
AcDbLine
 10
711.24588175
 20
1546.58385940
 30
0.0
 11
711.24588175
 21
1258.58385940
 31
0.0
  0
ENDBLK
  5
42D
100
AcDbEntity
  8
0
100
AcDbBlockEnd
  0
BLOCK
  5
42E
100
AcDbEntity
  8
0
100
AcDbBlockBegin
  2
ANSCHLUßFLANSCH_00086
 70
    64
 10
0.0
 20
0.0
 30
0.0
  3
ANSCHLUßFLANSCH_00086
  0
INSERT
  5
42F
100
AcDbEntity
  8
0
100
AcDbBlockReference
  2
_ANSCHLUßFLANSCH_00087
 10
-104.25411825
 20
1533.58385940
 30
0.0
  0
ENDBLK
  5
430
100
AcDbEntity
  8
0
100
AcDbBlockEnd
  0
BLOCK
  5
431
100
AcDbEntity
  8
0
100
AcDbBlockBegin
  2
_ANSCHLUßFLANSCH_00087
 70
    64
 10
-104.25411825
 20
1533.58385940
 30
0.0
  3
_ANSCHLUßFLANSCH_00087
  0
LINE
  5
432
100
AcDbEntity
  8
0
100
AcDbLine
 10
-104.25411825
 20
1533.58385940
 30
0.0
 11
-104.25411825
 21
1546.58385940
 31
0.0
  0
LINE
  5
433
100
AcDbEntity
  8
0
100
AcDbLine
 10
120.74588175
 20
1533.58385940
 30
0.0
 11
-104.25411825
 21
1533.58385940
 31
0.0
  0
LINE
  5
434
100
AcDbEntity
  8
0
100
AcDbLine
 10
120.74588175
 20
1533.58385940
 30
0.0
 11
120.74588175
 21
1546.58385940
 31
0.0
  0
ENDBLK
  5
435
100
AcDbEntity
  8
0
100
AcDbBlockEnd
  0
ENDSEC
  0
SECTION
  2
ENTITIES
  0
INSERT
  5
436
100
AcDbEntity
  8
0
100
AcDbBlockReference
  2
ANS3D02_00001
 10
0.0
 20
0.0
 30
0.0
  0
INSERT
  5
437
100
AcDbEntity
  8
0
100
AcDbBlockReference
  2
ANS3D03_00015
 10
0.0
 20
0.0
 30
0.0
  0
INSERT
  5
438
100
AcDbEntity
  8
0
100
AcDbBlockReference
  2
ANS3D04_00025
 10
0.0
 20
0.0
 30
0.0
  0
INSERT
  5
439
100
AcDbEntity
  8
0
100
AcDbBlockReference
  2
ANS3D05_00035
 10
0.0
 20
0.0
 30
0.0
  0
INSERT
  5
43A
100
AcDbEntity
  8
0
100
AcDbBlockReference
  2
ANS3D06_00056
 10
0.0
 20
0.0
 30
0.0
  0
ENDSEC
  0
SECTION
  2
OBJECTS
  0
DICTIONARY
  5
C
330
0
100
AcDbDictionary
281
     1
  3
ACAD_GROUP
350
D
  3
ACAD_LAYOUT
350
19
  3
ACAD_MLINESTYLE
350
16
  0
DICTIONARY
  5
115
330
1E
100
AcDbDictionary
280
     1
281
     1
  3
ACAD_INDEX
360
116
  0
DICTIONARY
  5
D
100
AcDbDictionary
281
     1
  0
DICTIONARY
  5
19
100
AcDbDictionary
281
     1
  3
Layout1
350
1D
  3
Model
350
21
  0
DICTIONARY
  5
16
100
AcDbDictionary
281
     1
  3
Standard
350
17
  0
DICTIONARY
  5
116
100
AcDbDictionary
281
     1
  3
*A1
350
117
  0
LAYOUT
  5
1D
100
AcDbPlotSettings
  1

  2
C:\Programme\MDT\plotters\DWF Classic.pc3
  4

  6

 40
0.0
 41
0.0
 42
0.0
 43
0.0
 44
0.0
 45
0.0
 46
0.0
 47
0.0
 48
0.0
 49
0.0
140
0.0
141
0.0
142
1.0
143
1.0
 70
   688
 72
     0
 73
     0
 74
     5
  7

 75
    16
147
1.0
148
0.0
149
0.0
100
AcDbLayout
  1
Layout1
 70
     1
 71
     1
 10
0.0
 20
0.0
 11
12.0
 21
9.0
 12
0.0
 22
0.0
 32
0.0
 14
1.000000000000000E+20
 24
1.000000000000000E+20
 34
1.000000000000000E+20
 15
-1.000000000000000E+20
 25
-1.000000000000000E+20
 35
-1.000000000000000E+20
146
0.0
 13
0.0
 23
0.0
 33
0.0
 16
1.0
 26
0.0
 36
0.0
 17
0.0
 27
1.0
 37
0.0
 76
     0
330
1A
  0
LAYOUT
  5
21
100
AcDbPlotSettings
  1

  2
C:\Programme\MDT\plotters\DWF Classic.pc3
  4

  6

 40
0.0
 41
0.0
 42
0.0
 43
0.0
 44
0.0
 45
0.0
 46
0.0
 47
0.0
 48
0.0
 49
0.0
140
0.0
141
0.0
142
1.0
143
1.0
 70
  1712
 72
     0
 73
     0
 74
     0
  7

 75
     0
147
1.0
148
0.0
149
0.0
100
AcDbLayout
  1
Model
 70
     1
 71
     0
 10
0.0
 20
0.0
 11
12.0
 21
9.0
 12
0.0
 22
0.0
 32
0.0
 14
0.0
 24
0.0
 34
0.0
 15
0.0
 25
0.0
 35
0.0
146
0.0
 13
0.0
 23
0.0
 33
0.0
 16
1.0
 26
0.0
 36
0.0
 17
0.0
 27
1.0
 37
0.0
 76
     0
330
1E
  0
MLINESTYLE
  5
17
100
AcDbMlineStyle
  2
STANDARD
 70
     0
  3

 62
   256
 51
90.0
 52
90.0
 71
     2
 49
0.5
 62
   256
  6
BYLAYER
 49
-0.5
 62
   256
  6
BYLAYER
  0
ACDBPLACEHOLDER
  5
F
  0
XRECORD
  5
129
100
AcDbXrecord
280
     1
 90
        0
  0
XRECORD
  5
12A
100
AcDbXrecord
280
     1
  1
{46C4153B-0B27-49FA-99B6-AF3E057D65BC}
  0
XRECORD
  5
122
100
AcDbXrecord
280
     1
  1

  0
XRECORD
  5
128
100
AcDbXrecord
280
     1
 90
        0
  0
XRECORD
  5
124
100
AcDbXrecord
280
     1
340
19
  0
XRECORD
  5
127
100
AcDbXrecord
280
     1
 90
    10781
  0
XRECORD
  5
125
100
AcDbXrecord
280
     1
340
18
  0
XRECORD
  5
126
100
AcDbXrecord
280
     1
340
E
  0
XRECORD
  5
12C
100
AcDbXrecord
280
     1
 40
0.0
  0
XRECORD
  5
12F
100
AcDbXrecord
280
     1
340
0
  0
XRECORD
  5
135
100
AcDbXrecord
280
     1
 10
0.0
 20
0.0
 30
0.0
  0
XRECORD
  5
131
100
AcDbXrecord
280
     1
 10
0.0
 20
0.0
 30
0.0
  0
XRECORD
  5
134
100
AcDbXrecord
280
     1
 10
0.0
 20
0.0
 30
0.0
  0
XRECORD
  5
132
100
AcDbXrecord
280
     1
 10
0.0
 20
0.0
 30
0.0
  0
XRECORD
  5
133
100
AcDbXrecord
280
     1
 10
0.0
 20
0.0
 30
0.0
  0
XRECORD
  5
130
100
AcDbXrecord
280
     1
 10
0.0
 20
0.0
 30
0.0
  0
XRECORD
  5
12D
100
AcDbXrecord
280
     1
340
0
  0
XRECORD
  5
12E
100
AcDbXrecord
280
     1
 70
     0
  0
XRECORD
  5
123
100
AcDbXrecord
280
     1
  1

  0
XRECORD
  5
120
100
AcDbXrecord
280
     1
 90
        1
  0
XRECORD
  5
121
100
AcDbXrecord
280
     1
 90
       70
  0
XRECORD
  5
138
100
AcDbXrecord
280
     1
340
0
  0
XRECORD
  5
13E
100
AcDbXrecord
280
     1
 10
0.0
 20
0.0
 30
0.0
  0
XRECORD
  5
13A
100
AcDbXrecord
280
     1
 10
0.0
 20
0.0
 30
0.0
  0
XRECORD
  5
13D
100
AcDbXrecord
280
     1
 10
0.0
 20
0.0
 30
0.0
  0
XRECORD
  5
13B
100
AcDbXrecord
280
     1
 10
0.0
 20
0.0
 30
0.0
  0
XRECORD
  5
13C
100
AcDbXrecord
280
     1
 10
0.0
 20
0.0
 30
0.0
  0
XRECORD
  5
139
100
AcDbXrecord
280
     1
 10
0.0
 20
0.0
 30
0.0
  0
XRECORD
  5
136
100
AcDbXrecord
280
     1
340
0
  0
XRECORD
  5
137
100
AcDbXrecord
280
     1
 70
     0
  0
XRECORD
  5
12B
100
AcDbXrecord
280
     1
  1
{09700D79-BD6A-4B2C-8A65-8ED4ED61BA28}
  0
DICTIONARYVAR
  5
11D
100
DictionaryVariables
280
     0
  1
1
  0
ENDSEC
  0
EOF
