999
NT  : - 1800
  0
SECTION
  2
HEADER
  9
$ACADVER
  1
AC1015
  9
$DWGCODEPAGE
  3
ANSI_1252
  9
$INSBASE
 10
0.0
 20
0.0
 30
0.0
  9
$EXTMIN
 10
-1585.37940818
 20
-1381.58923461
 30
0.0
  9
$EXTMAX
 10
3864.25008929
 20
1494.49530792
 30
0.0
  9
$LIMMIN
 10
-1585.37940818
 20
-1381.58923461
  9
$LIMMAX
 10
3864.25008929
 20
1494.49530792
  9
$FILLMODE
 70
     1
  9
$QTEXTMODE
 70
     0
  9
$LTSCALE
 40
1.0
  9
$ATTMODE
 70
     1
  9
$TEXTSTYLE
  7
Standard
  9
$LUNITS
 70
     2
  9
$LUPREC
 70
     4
  9
$AUNITS
 70
     0
  9
$AUPREC
 70
     0
  9
$ANGBASE
 50
0.0
  9
$ANGDIR
 70
     0
  9
$HANDSEED
  5
438
  9
$TILEMODE
 70
     1
  9
$VISRETAIN
 70
     0
  9
$MEASUREMENT
 70
     1
  0
ENDSEC
  0
SECTION
  2
CLASSES
  0
ENDSEC
  0
SECTION
  2
TABLES
  0
TABLE
  2
VPORT
  5
1
100
AcDbSymbolTable
 70
     1
  0
VPORT
  5
2
100
AcDbSymbolTableRecord
100
AcDbViewportTableRecord
  2
*Active
 70
     0
 10
0.0
 20
0.0
 11
1.0
 21
1.0
 12
1139.43534056
 22
56.45303666
 13
0.0
 23
0.0
 14
1.0
 24
1.0
 15
0.0
 25
0.0
 16
0.0
 26
0.0
 36
1.0
 17
0.0
 27
0.0
 37
0.0
 40
2876.084542523
 41
1.894808521
 42
50.0
 43
0.0
 44
0.0
 50
0.0
 51
0.0
 71
     0
 72
   100
 73
     1
 74
     1
 75
     0
 76
     0
 77
     0
 78
     0
  0
ENDTAB
  0
TABLE
  2
LTYPE
  5
3
100
AcDbSymbolTable
 70
    21
  0
LTYPE
  5
4
100
AcDbSymbolTableRecord
100
AcDbLinetypeTableRecord
  2
ByBlock
 70
    64
  3

 72
    65
 73
     0
 40
0.0
  0
LTYPE
  5
5
100
AcDbSymbolTableRecord
100
AcDbLinetypeTableRecord
  2
ByLayer
 70
    64
  3

 72
    65
 73
     0
 40
0.0
  0
LTYPE
  5
6
100
AcDbSymbolTableRecord
100
AcDbLinetypeTableRecord
  2
CONTINUOUS
 70
    64
  3
Solid line
 72
    65
 73
     0
 40
0.0
  0
LTYPE
  5
7
100
AcDbSymbolTableRecord
100
AcDbLinetypeTableRecord
  2
DOT
 70
    64
  3
..............
 72
    65
 73
     2
 40
2.000
 49
0.500
 74
     0
 49
-1.500
 74
     0
  0
LTYPE
  5
8
100
AcDbSymbolTableRecord
100
AcDbLinetypeTableRecord
  2
HIDDEN
 70
    64
  3
-- -- -- -- --
 72
    65
 73
     2
 40
7.000
 49
4.000
 74
     0
 49
-3.000
 74
     0
  0
LTYPE
  5
9
100
AcDbSymbolTableRecord
100
AcDbLinetypeTableRecord
  2
DASHDOT
 70
    64
  3
--.--.--.--.--
 72
    65
 73
     4
 40
8.500
 49
4.000
 74
     0
 49
-2.000
 74
     0
 49
0.500
 74
     0
 49
-2.000
 74
     0
  0
LTYPE
  5
A
100
AcDbSymbolTableRecord
100
AcDbLinetypeTableRecord
  2
STRICHPUNKT2
 70
    64
  3
--.--.--.--.--
 72
    65
 73
     4
 40
18.500
 49
10.000
 74
     0
 49
-4.000
 74
     0
 49
0.500
 74
     0
 49
-4.000
 74
     0
  0
LTYPE
  5
B
100
AcDbSymbolTableRecord
100
AcDbLinetypeTableRecord
  2
STRICHPUNKT3
 70
    64
  3
--.--.--.--.--
 72
    65
 73
     4
 40
35.500
 49
25.000
 74
     0
 49
-5.000
 74
     0
 49
0.500
 74
     0
 49
-5.000
 74
     0
  0
LTYPE
  5
13F
100
AcDbSymbolTableRecord
100
AcDbLinetypeTableRecord
  2
PHANTOM
 70
    64
  3
--..--..--..--
 72
    65
 73
     6
 40
23.000
 49
10.000
 74
     0
 49
-4.000
 74
     0
 49
0.500
 74
     0
 49
-4.000
 74
     0
 49
0.500
 74
     0
 49
-4.000
 74
     0
  0
LTYPE
  5
140
100
AcDbSymbolTableRecord
100
AcDbLinetypeTableRecord
  2
PHANTOM2
 70
    64
  3
--..--..--..--
 72
    65
 73
     6
 40
33.000
 49
20.000
 74
     0
 49
-4.000
 74
     0
 49
0.500
 74
     0
 49
-4.000
 74
     0
 49
0.500
 74
     0
 49
-4.000
 74
     0
  0
LTYPE
  5
141
100
AcDbSymbolTableRecord
100
AcDbLinetypeTableRecord
  2
PHANTOM3
 70
    64
  3
--..--..--..--
 72
    65
 73
     6
 40
50.000
 49
37.000
 74
     0
 49
-4.000
 74
     0
 49
0.500
 74
     0
 49
-4.000
 74
     0
 49
0.500
 74
     0
 49
-4.000
 74
     0
  0
LTYPE
  5
142
100
AcDbSymbolTableRecord
100
AcDbLinetypeTableRecord
  2
STR3PKT
 70
    64
  3
--...--...--...
 72
    65
 73
     8
 40
31.500
 49
20.000
 74
     0
 49
-2.500
 74
     0
 49
0.500
 74
     0
 49
-2.500
 74
     0
 49
0.500
 74
     0
 49
-2.500
 74
     0
 49
0.500
 74
     0
 49
-2.500
 74
     0
  0
LTYPE
  5
143
100
AcDbSymbolTableRecord
100
AcDbLinetypeTableRecord
  2
2STRPKT
 70
    64
  3
--.--.--.--.--
 72
    65
 73
     6
 40
28.000
 49
10.000
 74
     0
 49
-2.500
 74
     0
 49
10.000
 74
     0
 49
-2.500
 74
     0
 49
0.500
 74
     0
 49
-2.500
 74
     0
  0
LTYPE
  5
144
100
AcDbSymbolTableRecord
100
AcDbLinetypeTableRecord
  2
GESTRICHELT2
 70
    64
  3
-- -- -- -- --
 72
    65
 73
     2
 40
25.000
 49
10.000
 74
     0
 49
-15.000
 74
     0
  0
LTYPE
  5
145
100
AcDbSymbolTableRecord
100
AcDbLinetypeTableRecord
  2
2STR2PKT
 70
    64
  3
--..--..--..--
 72
    65
 73
     8
 40
31.000
 49
10.000
 74
     0
 49
-2.500
 74
     0
 49
10.000
 74
     0
 49
-2.500
 74
     0
 49
0.500
 74
     0
 49
-2.500
 74
     0
 49
0.500
 74
     0
 49
-2.500
 74
     0
  0
LTYPE
  5
146
100
AcDbSymbolTableRecord
100
AcDbLinetypeTableRecord
  2
STR3PKT2
 70
    64
  3
--...--...--...
 72
    65
 73
     8
 40
21.000
 49
10.000
 74
     0
 49
-2.500
 74
     0
 49
0.500
 74
     0
 49
-2.500
 74
     0
 49
0.500
 74
     0
 49
-2.500
 74
     0
 49
0.500
 74
     0
 49
-2.000
 74
     0
  0
LTYPE
  5
147
100
AcDbSymbolTableRecord
100
AcDbLinetypeTableRecord
  2
2STR3PKT
 70
    64
  3
--...--...--...
 72
    65
 73
    10
 40
34.000
 49
10.000
 74
     0
 49
-2.500
 74
     0
 49
10.000
 74
     0
 49
-2.500
 74
     0
 49
0.500
 74
     0
 49
-2.500
 74
     0
 49
0.500
 74
     0
 49
-2.500
 74
     0
 49
0.500
 74
     0
 49
-2.500
 74
     0
  0
LTYPE
  5
148
100
AcDbSymbolTableRecord
100
AcDbLinetypeTableRecord
  2
STRKSTR
 70
    64
  3
-- - -- - -- -
 72
    65
 73
     4
 40
30.000
 49
20.000
 74
     0
 49
-2.500
 74
     0
 49
5.000
 74
     0
 49
-2.500
 74
     0
  0
LTYPE
  5
149
100
AcDbSymbolTableRecord
100
AcDbLinetypeTableRecord
  2
STRKSTR2
 70
    64
  3
-- - -- - -- -
 72
    65
 73
     6
 40
37.500
 49
20.000
 74
     0
 49
-2.500
 74
     0
 49
5.000
 74
     0
 49
-2.500
 74
     0
 49
5.000
 74
     0
 49
-2.500
 74
     0
  0
LTYPE
  5
14A
100
AcDbSymbolTableRecord
100
AcDbLinetypeTableRecord
  2
STRKSTR3
 70
    64
  3
-- - -- - -- -
 72
    65
 73
     8
 40
45.000
 49
20.000
 74
     0
 49
-2.500
 74
     0
 49
5.000
 74
     0
 49
-2.500
 74
     0
 49
5.000
 74
     0
 49
-2.500
 74
     0
 49
5.000
 74
     0
 49
-2.500
 74
     0
  0
LTYPE
  5
14B
100
AcDbSymbolTableRecord
100
AcDbLinetypeTableRecord
  2
PUNKT2
 70
    64
  3
..............
 72
    65
 73
     2
 40
3.500
 49
0.500
 74
     0
 49
-3.000
 74
     0
  0
ENDTAB
  0
TABLE
  2
LAYER
  5
14C
100
AcDbSymbolTable
 70
    14
  0
LAYER
  5
14D
100
AcDbSymbolTableRecord
100
AcDbLayerTableRecord
  2
0
 70
    64
 62
     7
  6
CONTINUOUS
370
    -3
390
F
  0
LAYER
  5
14E
100
AcDbSymbolTableRecord
100
AcDbLayerTableRecord
  2
LE_GREEN
 70
    64
 62
     3
  6
CONTINUOUS
370
    -3
390
F
  0
LAYER
  5
14F
100
AcDbSymbolTableRecord
100
AcDbLayerTableRecord
  2
LE_RED
 70
    64
 62
     1
  6
CONTINUOUS
370
    -3
390
F
  0
LAYER
  5
150
100
AcDbSymbolTableRecord
100
AcDbLayerTableRecord
  2
LE_ALL
 70
    64
 62
     7
  6
CONTINUOUS
370
    50
390
F
  0
LAYER
  5
151
100
AcDbSymbolTableRecord
100
AcDbLayerTableRecord
  2
LE_HIDDEN1
 70
    64
 62
     3
  6
HIDDEN
370
    -3
390
F
  0
LAYER
  5
152
100
AcDbSymbolTableRecord
100
AcDbLayerTableRecord
  2
LE_HIDDEN
 70
    64
 62
     7
  6
CONTINUOUS
370
    -3
390
F
  0
LAYER
  5
153
100
AcDbSymbolTableRecord
100
AcDbLayerTableRecord
  2
LE_MIDDLE
 70
    64
 62
     7
  6
CONTINUOUS
370
    -3
390
F
  0
LAYER
  5
154
100
AcDbSymbolTableRecord
100
AcDbLayerTableRecord
  2
TXT_YELLOW
 70
    64
 62
     2
  6
CONTINUOUS
370
    -3
390
F
  0
LAYER
  5
155
100
AcDbSymbolTableRecord
100
AcDbLayerTableRecord
  2
TXT_DIM49
 70
    64
 62
     2
  6
CONTINUOUS
370
    -3
390
F
  0
LAYER
  5
156
100
AcDbSymbolTableRecord
100
AcDbLayerTableRecord
  2
TXT_ALL
 70
    64
 62
     7
  6
CONTINUOUS
370
    -3
390
F
  0
LAYER
  5
157
100
AcDbSymbolTableRecord
100
AcDbLayerTableRecord
  2
DIM49
 70
    64
 62
     4
  6
CONTINUOUS
370
    -3
390
F
  0
LAYER
  5
158
100
AcDbSymbolTableRecord
100
AcDbLayerTableRecord
  2
HATCH
 70
    64
 62
     3
  6
CONTINUOUS
370
    -3
390
F
  0
LAYER
  5
159
100
AcDbSymbolTableRecord
100
AcDbLayerTableRecord
  2
1
 70
    64
 62
     7
  6
CONTINUOUS
370
    -3
390
F
  0
LAYER
  5
15A
100
AcDbSymbolTableRecord
100
AcDbLayerTableRecord
  2
49
 70
    64
 62
     7
  6
CONTINUOUS
370
    -3
390
F
  0
ENDTAB
  0
TABLE
  2
STYLE
  5
15B
100
AcDbSymbolTable
 70
     2
  0
STYLE
  5
15C
100
AcDbSymbolTableRecord
100
AcDbTextStyleTableRecord
  2
MONOTXT
 70
     0
 40
0.0
 41
1.000
 50
0.0
 71
     0
 42
1.000
  3
monotxt.shx
  4

  0
STYLE
  5
15D
100
AcDbSymbolTableRecord
100
AcDbTextStyleTableRecord
  2
STANDARD
 70
     0
 40
0.0
 41
1.000
 50
0.0
 71
     0
 42
1.000
  3
txt
  4

  0
ENDTAB
  0
TABLE
  2
VIEW
  5
15E
100
AcDbSymbolTable
 70
     0
  0
ENDTAB
  0
TABLE
  2
UCS
  5
15F
100
AcDbSymbolTable
 70
     0
  0
ENDTAB
  0
TABLE
  2
APPID
  5
160
100
AcDbSymbolTable
 70
     1
  0
APPID
  5
161
100
AcDbSymbolTableRecord
100
AcDbRegAppTableRecord
  2
ACAD
 70
     0
  0
ENDTAB
  0
TABLE
  2
DIMSTYLE
  5
162
100
AcDbSymbolTable
100
AcDbDimStyleTable
 70
     0
  0
ENDTAB
  0
TABLE
  2
BLOCK_RECORD
  5
163
100
AcDbSymbolTable
 70
    89
  0
BLOCK_RECORD
  5
1E
100
AcDbSymbolTableRecord
100
AcDbBlockTableRecord
  2
*Model_Space
  0
BLOCK_RECORD
  5
1A
100
AcDbSymbolTableRecord
100
AcDbBlockTableRecord
  2
*Paper_Space
  0
BLOCK_RECORD
  5
164
100
AcDbSymbolTableRecord
100
AcDbBlockTableRecord
  2
ANS3D02_00001
  0
BLOCK_RECORD
  5
165
100
AcDbSymbolTableRecord
100
AcDbBlockTableRecord
  2
FIG3D02_00002
  0
BLOCK_RECORD
  5
166
100
AcDbSymbolTableRecord
100
AcDbBlockTableRecord
  2
JR60_00003
  0
BLOCK_RECORD
  5
167
100
AcDbSymbolTableRecord
100
AcDbBlockTableRecord
  2
GEHÄUSE_00004
  0
BLOCK_RECORD
  5
168
100
AcDbSymbolTableRecord
100
AcDbBlockTableRecord
  2
_GEHÄUSE_00005
  0
BLOCK_RECORD
  5
169
100
AcDbSymbolTableRecord
100
AcDbBlockTableRecord
  2
ANSCHLUßFLANSCH_00006
  0
BLOCK_RECORD
  5
16A
100
AcDbSymbolTableRecord
100
AcDbBlockTableRecord
  2
_ANSCHLUßFLANSCH_00007
  0
BLOCK_RECORD
  5
16B
100
AcDbSymbolTableRecord
100
AcDbBlockTableRecord
  2
FLIEHGEWICHT_00008
  0
BLOCK_RECORD
  5
16C
100
AcDbSymbolTableRecord
100
AcDbBlockTableRecord
  2
FLIEHGEWICHT_00009
  0
BLOCK_RECORD
  5
16D
100
AcDbSymbolTableRecord
100
AcDbBlockTableRecord
  2
FLIEHGEWICHT_00010
  0
BLOCK_RECORD
  5
16E
100
AcDbSymbolTableRecord
100
AcDbBlockTableRecord
  2
_FLIEHGEWICHT_00011
  0
BLOCK_RECORD
  5
16F
100
AcDbSymbolTableRecord
100
AcDbBlockTableRecord
  2
SCHUTZHAUBE_00012
  0
BLOCK_RECORD
  5
170
100
AcDbSymbolTableRecord
100
AcDbBlockTableRecord
  2
SCHUTZHAUBE_00013
  0
BLOCK_RECORD
  5
171
100
AcDbSymbolTableRecord
100
AcDbBlockTableRecord
  2
_SCHUTZHAUBE_00014
  0
BLOCK_RECORD
  5
172
100
AcDbSymbolTableRecord
100
AcDbBlockTableRecord
  2
ANS3D03_00015
  0
BLOCK_RECORD
  5
173
100
AcDbSymbolTableRecord
100
AcDbBlockTableRecord
  2
FIG3D03_00016
  0
BLOCK_RECORD
  5
174
100
AcDbSymbolTableRecord
100
AcDbBlockTableRecord
  2
JR60_00017
  0
BLOCK_RECORD
  5
175
100
AcDbSymbolTableRecord
100
AcDbBlockTableRecord
  2
GEHÄUSE_00018
  0
BLOCK_RECORD
  5
176
100
AcDbSymbolTableRecord
100
AcDbBlockTableRecord
  2
_GEHÄUSE_00019
  0
BLOCK_RECORD
  5
177
100
AcDbSymbolTableRecord
100
AcDbBlockTableRecord
  2
SCHUTZHAUBE_00020
  0
BLOCK_RECORD
  5
178
100
AcDbSymbolTableRecord
100
AcDbBlockTableRecord
  2
SCHUTZHAUBE_00021
  0
BLOCK_RECORD
  5
179
100
AcDbSymbolTableRecord
100
AcDbBlockTableRecord
  2
_SCHUTZHAUBE_00022
  0
BLOCK_RECORD
  5
17A
100
AcDbSymbolTableRecord
100
AcDbBlockTableRecord
  2
SCHUTZHAUBE_00023
  0
BLOCK_RECORD
  5
17B
100
AcDbSymbolTableRecord
100
AcDbBlockTableRecord
  2
_SCHUTZHAUBE_00024
  0
BLOCK_RECORD
  5
17C
100
AcDbSymbolTableRecord
100
AcDbBlockTableRecord
  2
ANS3D04_00025
  0
BLOCK_RECORD
  5
17D
100
AcDbSymbolTableRecord
100
AcDbBlockTableRecord
  2
FIG3D04_00026
  0
BLOCK_RECORD
  5
17E
100
AcDbSymbolTableRecord
100
AcDbBlockTableRecord
  2
JR60_00027
  0
BLOCK_RECORD
  5
17F
100
AcDbSymbolTableRecord
100
AcDbBlockTableRecord
  2
GEHÄUSE_00028
  0
BLOCK_RECORD
  5
180
100
AcDbSymbolTableRecord
100
AcDbBlockTableRecord
  2
_GEHÄUSE_00029
  0
BLOCK_RECORD
  5
181
100
AcDbSymbolTableRecord
100
AcDbBlockTableRecord
  2
SCHUTZHAUBE_00030
  0
BLOCK_RECORD
  5
182
100
AcDbSymbolTableRecord
100
AcDbBlockTableRecord
  2
SCHUTZHAUBE_00031
  0
BLOCK_RECORD
  5
183
100
AcDbSymbolTableRecord
100
AcDbBlockTableRecord
  2
_SCHUTZHAUBE_00032
  0
BLOCK_RECORD
  5
184
100
AcDbSymbolTableRecord
100
AcDbBlockTableRecord
  2
SCHUTZHAUBE_00033
  0
BLOCK_RECORD
  5
185
100
AcDbSymbolTableRecord
100
AcDbBlockTableRecord
  2
_SCHUTZHAUBE_00034
  0
BLOCK_RECORD
  5
186
100
AcDbSymbolTableRecord
100
AcDbBlockTableRecord
  2
ANS3D05_00035
  0
BLOCK_RECORD
  5
187
100
AcDbSymbolTableRecord
100
AcDbBlockTableRecord
  2
FIG3D05_00036
  0
BLOCK_RECORD
  5
188
100
AcDbSymbolTableRecord
100
AcDbBlockTableRecord
  2
JR60_00037
  0
BLOCK_RECORD
  5
189
100
AcDbSymbolTableRecord
100
AcDbBlockTableRecord
  2
GEHÄUSE_00038
  0
BLOCK_RECORD
  5
18A
100
AcDbSymbolTableRecord
100
AcDbBlockTableRecord
  2
_GEHÄUSE_00039
  0
BLOCK_RECORD
  5
18B
100
AcDbSymbolTableRecord
100
AcDbBlockTableRecord
  2
ANSCHLUßFLANSCH_00040
  0
BLOCK_RECORD
  5
18C
100
AcDbSymbolTableRecord
100
AcDbBlockTableRecord
  2
_ANSCHLUßFLANSCH_00041
  0
BLOCK_RECORD
  5
18D
100
AcDbSymbolTableRecord
100
AcDbBlockTableRecord
  2
FLIEHGEWICHT_00042
  0
BLOCK_RECORD
  5
18E
100
AcDbSymbolTableRecord
100
AcDbBlockTableRecord
  2
FLIEHGEWICHT_00043
  0
BLOCK_RECORD
  5
18F
100
AcDbSymbolTableRecord
100
AcDbBlockTableRecord
  2
FLIEHGEWICHT_00044
  0
BLOCK_RECORD
  5
190
100
AcDbSymbolTableRecord
100
AcDbBlockTableRecord
  2
_FLIEHGEWICHT_00045
  0
BLOCK_RECORD
  5
191
100
AcDbSymbolTableRecord
100
AcDbBlockTableRecord
  2
FLIEHGEWICHT_00046
  0
BLOCK_RECORD
  5
192
100
AcDbSymbolTableRecord
100
AcDbBlockTableRecord
  2
FLIEHGEWICHT_00047
  0
BLOCK_RECORD
  5
193
100
AcDbSymbolTableRecord
100
AcDbBlockTableRecord
  2
_FLIEHGEWICHT_00048
  0
BLOCK_RECORD
  5
194
100
AcDbSymbolTableRecord
100
AcDbBlockTableRecord
  2
FLIEHGEWICHT_00049
  0
BLOCK_RECORD
  5
195
100
AcDbSymbolTableRecord
100
AcDbBlockTableRecord
  2
_FLIEHGEWICHT_00050
  0
BLOCK_RECORD
  5
196
100
AcDbSymbolTableRecord
100
AcDbBlockTableRecord
  2
SCHUTZHAUBE_00051
  0
BLOCK_RECORD
  5
197
100
AcDbSymbolTableRecord
100
AcDbBlockTableRecord
  2
SCHUTZHAUBE_00052
  0
BLOCK_RECORD
  5
198
100
AcDbSymbolTableRecord
100
AcDbBlockTableRecord
  2
_SCHUTZHAUBE_00053
  0
BLOCK_RECORD
  5
199
100
AcDbSymbolTableRecord
100
AcDbBlockTableRecord
  2
SCHUTZHAUBE_00054
  0
BLOCK_RECORD
  5
19A
100
AcDbSymbolTableRecord
100
AcDbBlockTableRecord
  2
_SCHUTZHAUBE_00055
  0
BLOCK_RECORD
  5
19B
100
AcDbSymbolTableRecord
100
AcDbBlockTableRecord
  2
ANS3D06_00056
  0
BLOCK_RECORD
  5
19C
100
AcDbSymbolTableRecord
100
AcDbBlockTableRecord
  2
FIG3D06_00057
  0
BLOCK_RECORD
  5
19D
100
AcDbSymbolTableRecord
100
AcDbBlockTableRecord
  2
JR60_00058
  0
BLOCK_RECORD
  5
19E
100
AcDbSymbolTableRecord
100
AcDbBlockTableRecord
  2
GEHÄUSE_00059
  0
BLOCK_RECORD
  5
19F
100
AcDbSymbolTableRecord
100
AcDbBlockTableRecord
  2
_GEHÄUSE_00060
  0
BLOCK_RECORD
  5
1A0
100
AcDbSymbolTableRecord
100
AcDbBlockTableRecord
  2
WELLE_00061
  0
BLOCK_RECORD
  5
1A1
100
AcDbSymbolTableRecord
100
AcDbBlockTableRecord
  2
WELLE_00062
  0
BLOCK_RECORD
  5
1A2
100
AcDbSymbolTableRecord
100
AcDbBlockTableRecord
  2
_WELLE_00063
  0
BLOCK_RECORD
  5
1A3
100
AcDbSymbolTableRecord
100
AcDbBlockTableRecord
  2
WELLE_00064
  0
BLOCK_RECORD
  5
1A4
100
AcDbSymbolTableRecord
100
AcDbBlockTableRecord
  2
_WELLE_00065
  0
BLOCK_RECORD
  5
1A5
100
AcDbSymbolTableRecord
100
AcDbBlockTableRecord
  2
WELLE_00066
  0
BLOCK_RECORD
  5
1A6
100
AcDbSymbolTableRecord
100
AcDbBlockTableRecord
  2
_WELLE_00067
  0
BLOCK_RECORD
  5
1A7
100
AcDbSymbolTableRecord
100
AcDbBlockTableRecord
  2
WELLE_00068
  0
BLOCK_RECORD
  5
1A8
100
AcDbSymbolTableRecord
100
AcDbBlockTableRecord
  2
_WELLE_00069
  0
BLOCK_RECORD
  5
1A9
100
AcDbSymbolTableRecord
100
AcDbBlockTableRecord
  2
ANSCHLUßFLANSCH_00070
  0
BLOCK_RECORD
  5
1AA
100
AcDbSymbolTableRecord
100
AcDbBlockTableRecord
  2
_ANSCHLUßFLANSCH_00071
  0
BLOCK_RECORD
  5
1AB
100
AcDbSymbolTableRecord
100
AcDbBlockTableRecord
  2
FLIEHGEWICHT_00072
  0
BLOCK_RECORD
  5
1AC
100
AcDbSymbolTableRecord
100
AcDbBlockTableRecord
  2
FLIEHGEWICHT_00073
  0
BLOCK_RECORD
  5
1AD
100
AcDbSymbolTableRecord
100
AcDbBlockTableRecord
  2
FLIEHGEWICHT_00074
  0
BLOCK_RECORD
  5
1AE
100
AcDbSymbolTableRecord
100
AcDbBlockTableRecord
  2
_FLIEHGEWICHT_00075
  0
BLOCK_RECORD
  5
1AF
100
AcDbSymbolTableRecord
100
AcDbBlockTableRecord
  2
FLIEHGEWICHT_00076
  0
BLOCK_RECORD
  5
1B0
100
AcDbSymbolTableRecord
100
AcDbBlockTableRecord
  2
_FLIEHGEWICHT_00077
  0
BLOCK_RECORD
  5
1B1
100
AcDbSymbolTableRecord
100
AcDbBlockTableRecord
  2
FLIEHGEWICHT_00078
  0
BLOCK_RECORD
  5
1B2
100
AcDbSymbolTableRecord
100
AcDbBlockTableRecord
  2
FLIEHGEWICHT_00079
  0
BLOCK_RECORD
  5
1B3
100
AcDbSymbolTableRecord
100
AcDbBlockTableRecord
  2
_FLIEHGEWICHT_00080
  0
BLOCK_RECORD
  5
1B4
100
AcDbSymbolTableRecord
100
AcDbBlockTableRecord
  2
FLIEHGEWICHT_00081
  0
BLOCK_RECORD
  5
1B5
100
AcDbSymbolTableRecord
100
AcDbBlockTableRecord
  2
_FLIEHGEWICHT_00082
  0
BLOCK_RECORD
  5
1B6
100
AcDbSymbolTableRecord
100
AcDbBlockTableRecord
  2
SCHUTZHAUBE_00083
  0
BLOCK_RECORD
  5
1B7
100
AcDbSymbolTableRecord
100
AcDbBlockTableRecord
  2
SCHUTZHAUBE_00084
  0
BLOCK_RECORD
  5
1B8
100
AcDbSymbolTableRecord
100
AcDbBlockTableRecord
  2
_SCHUTZHAUBE_00085
  0
BLOCK_RECORD
  5
1B9
100
AcDbSymbolTableRecord
100
AcDbBlockTableRecord
  2
SCHUTZHAUBE_00086
  0
BLOCK_RECORD
  5
1BA
100
AcDbSymbolTableRecord
100
AcDbBlockTableRecord
  2
_SCHUTZHAUBE_00087
  0
ENDTAB
  0
ENDSEC
  0
SECTION
  2
BLOCKS
  0
BLOCK
  5
1BB
100
AcDbEntity
  8
0
100
AcDbBlockBegin
  2
*Model_Space
 70
     0
 10
0.0
 20
0.0
 30
0.0
  3
*Model_Space
  1

  0
ENDBLK
  5
1BC
100
AcDbEntity
  8
0
100
AcDbBlockEnd
  0
BLOCK
  5
1BD
100
AcDbEntity
100
AcDbBlockBegin
 67
     1
  8
0
  2
*Paper_Space
 70
     0
 10
0.0
 20
0.0
 30
0.0
  3
*Paper_Space
  1

  0
ENDBLK
  5
1BE
100
AcDbEntity
100
AcDbBlockEnd
 67
     1
  8
0
  0
BLOCK
  5
1BF
100
AcDbEntity
  8
0
100
AcDbBlockBegin
  2
ANS3D02_00001
 70
    64
 10
0.0
 20
0.0
 30
0.0
  3
ANS3D02_00001
  0
INSERT
  5
1C0
100
AcDbEntity
  8
0
100
AcDbBlockReference
  2
FIG3D02_00002
 10
0.0
 20
0.0
 30
0.0
  0
ENDBLK
  5
1C1
100
AcDbEntity
  8
0
100
AcDbBlockEnd
  0
BLOCK
  5
1C2
100
AcDbEntity
  8
0
100
AcDbBlockBegin
  2
FIG3D02_00002
 70
    64
 10
0.0
 20
0.0
 30
0.0
  3
FIG3D02_00002
  0
INSERT
  5
1C3
100
AcDbEntity
  8
0
100
AcDbBlockReference
  2
JR60_00003
 10
0.0
 20
0.0
 30
0.0
  0
ENDBLK
  5
1C4
100
AcDbEntity
  8
0
100
AcDbBlockEnd
  0
BLOCK
  5
1C5
100
AcDbEntity
  8
0
100
AcDbBlockBegin
  2
JR60_00003
 70
    64
 10
0.0
 20
0.0
 30
0.0
  3
JR60_00003
  0
INSERT
  5
1C6
100
AcDbEntity
  8
0
100
AcDbBlockReference
  2
GEHÄUSE_00004
 10
0.0
 20
0.0
 30
0.0
  0
INSERT
  5
1C7
100
AcDbEntity
  8
0
100
AcDbBlockReference
  2
ANSCHLUßFLANSCH_00006
 10
0.0
 20
0.0
 30
0.0
  0
INSERT
  5
1C8
100
AcDbEntity
  8
0
100
AcDbBlockReference
  2
FLIEHGEWICHT_00008
 10
0.0
 20
0.0
 30
0.0
  0
INSERT
  5
1C9
100
AcDbEntity
  8
0
100
AcDbBlockReference
  2
SCHUTZHAUBE_00012
 10
0.0
 20
0.0
 30
0.0
  0
ENDBLK
  5
1CA
100
AcDbEntity
  8
0
100
AcDbBlockEnd
  0
BLOCK
  5
1CB
100
AcDbEntity
  8
0
100
AcDbBlockBegin
  2
GEHÄUSE_00004
 70
    64
 10
0.0
 20
0.0
 30
0.0
  3
GEHÄUSE_00004
  0
INSERT
  5
1CC
100
AcDbEntity
  8
0
100
AcDbBlockReference
  2
_GEHÄUSE_00005
 10
622.78517176
 20
-268.99379515
 30
0.0
  0
ENDBLK
  5
1CD
100
AcDbEntity
  8
0
100
AcDbBlockEnd
  0
BLOCK
  5
1CE
100
AcDbEntity
  8
0
100
AcDbBlockBegin
  2
_GEHÄUSE_00005
 70
    64
 10
622.78517176
 20
-268.99379515
 30
0.0
  3
_GEHÄUSE_00005
  0
LINE
  5
1CF
100
AcDbEntity
  8
0
100
AcDbLine
 10
622.78517176
 20
-268.99379515
 30
0.0
 11
622.78517176
 21
-258.99379515
 31
0.0
  0
LINE
  5
1D0
100
AcDbEntity
  8
0
100
AcDbLine
 10
-122.21482824
 20
-268.99379515
 30
0.0
 11
622.78517176
 21
-268.99379515
 31
0.0
  0
LINE
  5
1D1
100
AcDbEntity
  8
0
100
AcDbLine
 10
-122.21482824
 20
-268.99379515
 30
0.0
 11
-122.21482824
 21
-258.99379515
 31
0.0
  0
ENDBLK
  5
1D2
100
AcDbEntity
  8
0
100
AcDbBlockEnd
  0
BLOCK
  5
1D3
100
AcDbEntity
  8
0
100
AcDbBlockBegin
  2
ANSCHLUßFLANSCH_00006
 70
    64
 10
0.0
 20
0.0
 30
0.0
  3
ANSCHLUßFLANSCH_00006
  0
INSERT
  5
1D4
100
AcDbEntity
  8
0
100
AcDbBlockReference
  2
_ANSCHLUßFLANSCH_00007
 10
100.03880863
 20
129.58783850
 30
0.0
  0
ENDBLK
  5
1D5
100
AcDbEntity
  8
0
100
AcDbBlockEnd
  0
BLOCK
  5
1D6
100
AcDbEntity
  8
0
100
AcDbBlockBegin
  2
_ANSCHLUßFLANSCH_00007
 70
    64
 10
100.03880863
 20
129.58783850
 30
0.0
  3
_ANSCHLUßFLANSCH_00007
  0
CIRCLE
  5
1D7
100
AcDbEntity
  8
0
100
AcDbCircle
 10
100.03880863
 20
122.83783850
 30
0.0
 40
6.75000000
  0
CIRCLE
  5
1D8
100
AcDbEntity
  8
0
100
AcDbCircle
 10
142.11680542
 20
80.75984172
 30
0.0
 40
6.75000000
  0
CIRCLE
  5
1D9
100
AcDbEntity
  8
0
100
AcDbCircle
 10
142.11680542
 20
21.25256799
 30
0.0
 40
6.75000000
  0
CIRCLE
  5
1DA
100
AcDbEntity
  8
0
100
AcDbCircle
 10
100.03880863
 20
-20.82542880
 30
0.0
 40
6.75000000
  0
CIRCLE
  5
1DB
100
AcDbEntity
  8
0
100
AcDbCircle
 10
40.53153490
 20
-20.82542880
 30
0.0
 40
6.75000000
  0
CIRCLE
  5
1DC
100
AcDbEntity
  8
0
100
AcDbCircle
 10
-1.54646189
 20
21.25256799
 30
0.0
 40
6.75000000
  0
CIRCLE
  5
1DD
100
AcDbEntity
  8
0
100
AcDbCircle
 10
-1.54646189
 20
80.75984172
 30
0.0
 40
6.75000000
  0
CIRCLE
  5
1DE
100
AcDbEntity
  8
0
100
AcDbCircle
 10
40.53153490
 20
122.83783850
 30
0.0
 40
6.75000000
  0
CIRCLE
  5
1DF
100
AcDbEntity
  8
0
100
AcDbCircle
 10
70.28517176
 20
51.00620485
 30
0.0
 40
90.00000000
  0
ENDBLK
  5
1E0
100
AcDbEntity
  8
0
100
AcDbBlockEnd
  0
BLOCK
  5
1E1
100
AcDbEntity
  8
0
100
AcDbBlockBegin
  2
FLIEHGEWICHT_00008
 70
    64
 10
0.0
 20
0.0
 30
0.0
  3
FLIEHGEWICHT_00008
  0
INSERT
  5
1E2
100
AcDbEntity
  8
0
100
AcDbBlockReference
  2
FLIEHGEWICHT_00009
 10
0.0
 20
0.0
 30
0.0
  0
ENDBLK
  5
1E3
100
AcDbEntity
  8
0
100
AcDbBlockEnd
  0
BLOCK
  5
1E4
100
AcDbEntity
  8
0
100
AcDbBlockBegin
  2
FLIEHGEWICHT_00009
 70
    64
 10
0.0
 20
0.0
 30
0.0
  3
FLIEHGEWICHT_00009
  0
INSERT
  5
1E5
100
AcDbEntity
  8
0
100
AcDbBlockReference
  2
FLIEHGEWICHT_00010
 10
0.0
 20
0.0
 30
0.0
  0
ENDBLK
  5
1E6
100
AcDbEntity
  8
0
100
AcDbBlockEnd
  0
BLOCK
  5
1E7
100
AcDbEntity
  8
0
100
AcDbBlockBegin
  2
FLIEHGEWICHT_00010
 70
    64
 10
0.0
 20
0.0
 30
0.0
  3
FLIEHGEWICHT_00010
  0
INSERT
  5
1E8
100
AcDbEntity
  8
0
100
AcDbBlockReference
  2
_FLIEHGEWICHT_00011
 10
145.00739398
 20
-15.45122142
 30
0.0
  0
ENDBLK
  5
1E9
100
AcDbEntity
  8
0
100
AcDbBlockEnd
  0
BLOCK
  5
1EA
100
AcDbEntity
  8
0
100
AcDbBlockBegin
  2
_FLIEHGEWICHT_00011
 70
    64
 10
145.00739398
 20
-15.45122142
 30
0.0
  3
_FLIEHGEWICHT_00011
  0
ARC
  5
1EB
100
AcDbEntity
  8
0
100
AcDbCircle
 10
-64.71482824
 20
51.00620485
 30
0.0
 40
220.00000000
100
AcDbArc
 50
-17.582528199
 51
-9.846525263
  0
ARC
  5
1EC
100
AcDbEntity
  8
0
100
AcDbCircle
 10
-64.71482824
 20
51.00620485
 30
0.0
 40
220.00000000
100
AcDbArc
 50
9.846525263
 51
17.582528199
  0
ENDBLK
  5
1ED
100
AcDbEntity
  8
0
100
AcDbBlockEnd
  0
BLOCK
  5
1EE
100
AcDbEntity
  8
0
100
AcDbBlockBegin
  2
SCHUTZHAUBE_00012
 70
    64
 10
0.0
 20
0.0
 30
0.0
  3
SCHUTZHAUBE_00012
  0
INSERT
  5
1EF
100
AcDbEntity
  8
0
100
AcDbBlockReference
  2
SCHUTZHAUBE_00013
 10
0.0
 20
0.0
 30
0.0
  0
ENDBLK
  5
1F0
100
AcDbEntity
  8
0
100
AcDbBlockEnd
  0
BLOCK
  5
1F1
100
AcDbEntity
  8
0
100
AcDbBlockBegin
  2
SCHUTZHAUBE_00013
 70
    64
 10
0.0
 20
0.0
 30
0.0
  3
SCHUTZHAUBE_00013
  0
INSERT
  5
1F2
100
AcDbEntity
  8
0
100
AcDbBlockReference
  2
_SCHUTZHAUBE_00014
 10
70.28517176
 20
151.00620485
 30
0.0
  0
ENDBLK
  5
1F3
100
AcDbEntity
  8
0
100
AcDbBlockEnd
  0
BLOCK
  5
1F4
100
AcDbEntity
  8
0
100
AcDbBlockBegin
  2
_SCHUTZHAUBE_00014
 70
    64
 10
70.28517176
 20
151.00620485
 30
0.0
  3
_SCHUTZHAUBE_00014
  0
CIRCLE
  5
1F5
100
AcDbEntity
  8
0
100
AcDbCircle
 10
70.28517176
 20
51.00620485
 30
0.0
 40
100.00000000
  0
POLYLINE
  5
1F6
100
AcDbEntity
  8
0
100
AcDb2dPolyline
 66
     1
  0
VERTEX
  5
1F7
100
AcDbEntity
  8
0
100
AcDbVertex
100
AcDb2dVertex
 10
-249.71482824
 20
179.83463198
 30
0.0
  0
VERTEX
  5
1F8
100
AcDbEntity
  8
0
100
AcDbVertex
100
AcDb2dVertex
 10
-249.71482824
 20
-258.99379515
 30
0.0
  0
VERTEX
  5
1F9
100
AcDbEntity
  8
0
100
AcDbVertex
100
AcDb2dVertex
 10
750.28517176
 20
-258.99379515
 30
0.0
  0
VERTEX
  5
1FA
100
AcDbEntity
  8
0
100
AcDbVertex
100
AcDb2dVertex
 10
750.28517176
 20
179.83463198
 30
0.0
  0
VERTEX
  5
1FB
100
AcDbEntity
  8
0
100
AcDbVertex
100
AcDb2dVertex
 10
549.11359889
 20
381.00620485
 30
0.0
  0
VERTEX
  5
1FC
100
AcDbEntity
  8
0
100
AcDbVertex
100
AcDb2dVertex
 10
-48.54325536
 20
381.00620485
 30
0.0
  0
VERTEX
  5
1FD
100
AcDbEntity
  8
0
100
AcDbVertex
100
AcDb2dVertex
 10
-249.71482824
 20
179.83463198
 30
0.0
  0
SEQEND
  5
1FE
100
AcDbEntity
  8
0
  0
ENDBLK
  5
1FF
100
AcDbEntity
  8
0
100
AcDbBlockEnd
  0
BLOCK
  5
200
100
AcDbEntity
  8
0
100
AcDbBlockBegin
  2
ANS3D03_00015
 70
    64
 10
0.0
 20
0.0
 30
0.0
  3
ANS3D03_00015
  0
INSERT
  5
201
100
AcDbEntity
  8
0
100
AcDbBlockReference
  2
FIG3D03_00016
 10
0.0
 20
0.0
 30
0.0
  0
ENDBLK
  5
202
100
AcDbEntity
  8
0
100
AcDbBlockEnd
  0
BLOCK
  5
203
100
AcDbEntity
  8
0
100
AcDbBlockBegin
  2
FIG3D03_00016
 70
    64
 10
0.0
 20
0.0
 30
0.0
  3
FIG3D03_00016
  0
INSERT
  5
204
100
AcDbEntity
  8
0
100
AcDbBlockReference
  2
JR60_00017
 10
0.0
 20
0.0
 30
0.0
  0
ENDBLK
  5
205
100
AcDbEntity
  8
0
100
AcDbBlockEnd
  0
BLOCK
  5
206
100
AcDbEntity
  8
0
100
AcDbBlockBegin
  2
JR60_00017
 70
    64
 10
0.0
 20
0.0
 30
0.0
  3
JR60_00017
  0
INSERT
  5
207
100
AcDbEntity
  8
0
100
AcDbBlockReference
  2
GEHÄUSE_00018
 10
0.0
 20
0.0
 30
0.0
  0
INSERT
  5
208
100
AcDbEntity
  8
0
100
AcDbBlockReference
  2
SCHUTZHAUBE_00020
 10
0.0
 20
0.0
 30
0.0
  0
ENDBLK
  5
209
100
AcDbEntity
  8
0
100
AcDbBlockEnd
  0
BLOCK
  5
20A
100
AcDbEntity
  8
0
100
AcDbBlockBegin
  2
GEHÄUSE_00018
 70
    64
 10
0.0
 20
0.0
 30
0.0
  3
GEHÄUSE_00018
  0
INSERT
  5
20B
100
AcDbEntity
  8
0
100
AcDbBlockReference
  2
_GEHÄUSE_00019
 10
1640.95632639
 20
-268.99379515
 30
0.0
  0
ENDBLK
  5
20C
100
AcDbEntity
  8
0
100
AcDbBlockEnd
  0
BLOCK
  5
20D
100
AcDbEntity
  8
0
100
AcDbBlockBegin
  2
_GEHÄUSE_00019
 70
    64
 10
1640.95632639
 20
-268.99379515
 30
0.0
  3
_GEHÄUSE_00019
  0
LINE
  5
20E
100
AcDbEntity
  8
0
100
AcDbLine
 10
1640.95632639
 20
-268.99379515
 30
0.0
 11
1640.95632639
 21
-236.99379515
 31
0.0
  0
LINE
  5
20F
100
AcDbEntity
  8
0
100
AcDbLine
 10
1570.95632639
 20
-236.99379515
 30
0.0
 11
1640.95632639
 21
-236.99379515
 31
0.0
  0
LINE
  5
210
100
AcDbEntity
  8
0
100
AcDbLine
 10
1570.95632639
 20
-121.99379515
 30
0.0
 11
1570.95632639
 21
-236.99379515
 31
0.0
  0
LINE
  5
211
100
AcDbEntity
  8
0
100
AcDbLine
 10
1640.95632639
 20
-121.99379515
 30
0.0
 11
1570.95632639
 21
-121.99379515
 31
0.0
  0
LINE
  5
212
100
AcDbEntity
  8
0
100
AcDbLine
 10
1640.95632639
 20
-121.99379515
 30
0.0
 11
1640.95632639
 21
261.00620485
 31
0.0
  0
LINE
  5
213
100
AcDbEntity
  8
0
100
AcDbLine
 10
1270.95632639
 20
261.00620485
 30
0.0
 11
1640.95632639
 21
261.00620485
 31
0.0
  0
LINE
  5
214
100
AcDbEntity
  8
0
100
AcDbLine
 10
1270.95632639
 20
-121.99379515
 30
0.0
 11
1270.95632639
 21
261.00620485
 31
0.0
  0
LINE
  5
215
100
AcDbEntity
  8
0
100
AcDbLine
 10
1340.95632639
 20
-121.99379515
 30
0.0
 11
1270.95632639
 21
-121.99379515
 31
0.0
  0
LINE
  5
216
100
AcDbEntity
  8
0
100
AcDbLine
 10
1340.95632639
 20
-236.99379515
 30
0.0
 11
1340.95632639
 21
-121.99379515
 31
0.0
  0
LINE
  5
217
100
AcDbEntity
  8
0
100
AcDbLine
 10
1270.95632639
 20
-236.99379515
 30
0.0
 11
1340.95632639
 21
-236.99379515
 31
0.0
  0
LINE
  5
218
100
AcDbEntity
  8
0
100
AcDbLine
 10
1270.95632639
 20
-268.99379515
 30
0.0
 11
1270.95632639
 21
-236.99379515
 31
0.0
  0
LINE
  5
219
100
AcDbEntity
  8
0
100
AcDbLine
 10
1270.95632639
 20
-268.99379515
 30
0.0
 11
1358.95632639
 21
-268.99379515
 31
0.0
  0
LINE
  5
21A
100
AcDbEntity
  8
0
100
AcDbLine
 10
1358.95632639
 20
-263.99379515
 30
0.0
 11
1358.95632639
 21
-268.99379515
 31
0.0
  0
LINE
  5
21B
100
AcDbEntity
  8
0
100
AcDbLine
 10
1552.95632639
 20
-263.99379515
 30
0.0
 11
1358.95632639
 21
-263.99379515
 31
0.0
  0
LINE
  5
21C
100
AcDbEntity
  8
0
100
AcDbLine
 10
1552.95632639
 20
-268.99379515
 30
0.0
 11
1552.95632639
 21
-263.99379515
 31
0.0
  0
LINE
  5
21D
100
AcDbEntity
  8
0
100
AcDbLine
 10
1552.95632639
 20
-268.99379515
 30
0.0
 11
1640.95632639
 21
-268.99379515
 31
0.0
  0
ENDBLK
  5
21E
100
AcDbEntity
  8
0
100
AcDbBlockEnd
  0
BLOCK
  5
21F
100
AcDbEntity
  8
0
100
AcDbBlockBegin
  2
SCHUTZHAUBE_00020
 70
    64
 10
0.0
 20
0.0
 30
0.0
  3
SCHUTZHAUBE_00020
  0
INSERT
  5
220
100
AcDbEntity
  8
0
100
AcDbBlockReference
  2
SCHUTZHAUBE_00021
 10
0.0
 20
0.0
 30
0.0
  0
INSERT
  5
221
100
AcDbEntity
  8
0
100
AcDbBlockReference
  2
SCHUTZHAUBE_00023
 10
0.0
 20
0.0
 30
0.0
  0
ENDBLK
  5
222
100
AcDbEntity
  8
0
100
AcDbBlockEnd
  0
BLOCK
  5
223
100
AcDbEntity
  8
0
100
AcDbBlockBegin
  2
SCHUTZHAUBE_00021
 70
    64
 10
0.0
 20
0.0
 30
0.0
  3
SCHUTZHAUBE_00021
  0
INSERT
  5
224
100
AcDbEntity
  8
0
100
AcDbBlockReference
  2
_SCHUTZHAUBE_00022
 10
1640.95632639
 20
179.83463198
 30
0.0
  0
ENDBLK
  5
225
100
AcDbEntity
  8
0
100
AcDbBlockEnd
  0
BLOCK
  5
226
100
AcDbEntity
  8
0
100
AcDbBlockBegin
  2
_SCHUTZHAUBE_00022
 70
    64
 10
1640.95632639
 20
179.83463198
 30
0.0
  3
_SCHUTZHAUBE_00022
  0
POLYLINE
  5
227
100
AcDbEntity
  8
0
100
AcDb2dPolyline
 66
     1
  0
VERTEX
  5
228
100
AcDbEntity
  8
0
100
AcDbVertex
100
AcDb2dVertex
 10
1640.95632639
 20
179.83463198
 30
0.0
  0
VERTEX
  5
229
100
AcDbEntity
  8
0
100
AcDbVertex
100
AcDb2dVertex
 10
1640.95632639
 20
261.00620485
 30
0.0
  0
VERTEX
  5
22A
100
AcDbEntity
  8
0
100
AcDbVertex
100
AcDb2dVertex
 10
1638.95632639
 20
261.00620485
 30
0.0
  0
VERTEX
  5
22B
100
AcDbEntity
  8
0
100
AcDbVertex
100
AcDb2dVertex
 10
1638.95632639
 20
381.00620485
 30
0.0
  0
VERTEX
  5
22C
100
AcDbEntity
  8
0
100
AcDbVertex
100
AcDb2dVertex
 10
1865.95632639
 20
381.00620485
 30
0.0
  0
VERTEX
  5
22D
100
AcDbEntity
  8
0
100
AcDbVertex
100
AcDb2dVertex
 10
1865.95632639
 20
179.83463198
 30
0.0
  0
VERTEX
  5
22E
100
AcDbEntity
  8
0
100
AcDbVertex
100
AcDb2dVertex
 10
1640.95632639
 20
179.83463198
 30
0.0
  0
SEQEND
  5
22F
100
AcDbEntity
  8
0
  0
LINE
  5
230
100
AcDbEntity
  8
0
100
AcDbLine
 10
1640.95632639
 20
-258.99379515
 30
0.0
 11
1640.95632639
 21
179.83463198
 31
0.0
  0
LINE
  5
231
100
AcDbEntity
  8
0
100
AcDbLine
 10
1640.95632639
 20
-258.99379515
 30
0.0
 11
1865.95632639
 21
-258.99379515
 31
0.0
  0
LINE
  5
232
100
AcDbEntity
  8
0
100
AcDbLine
 10
1865.95632639
 20
179.83463198
 30
0.0
 11
1865.95632639
 21
-258.99379515
 31
0.0
  0
ENDBLK
  5
233
100
AcDbEntity
  8
0
100
AcDbBlockEnd
  0
BLOCK
  5
234
100
AcDbEntity
  8
0
100
AcDbBlockBegin
  2
SCHUTZHAUBE_00023
 70
    64
 10
0.0
 20
0.0
 30
0.0
  3
SCHUTZHAUBE_00023
  0
INSERT
  5
235
100
AcDbEntity
  8
0
100
AcDbBlockReference
  2
_SCHUTZHAUBE_00024
 10
1272.95632639
 20
261.00620485
 30
0.0
  0
ENDBLK
  5
236
100
AcDbEntity
  8
0
100
AcDbBlockEnd
  0
BLOCK
  5
237
100
AcDbEntity
  8
0
100
AcDbBlockBegin
  2
_SCHUTZHAUBE_00024
 70
    64
 10
1272.95632639
 20
261.00620485
 30
0.0
  3
_SCHUTZHAUBE_00024
  0
POLYLINE
  5
238
100
AcDbEntity
  8
0
100
AcDb2dPolyline
 66
     1
  0
VERTEX
  5
239
100
AcDbEntity
  8
0
100
AcDbVertex
100
AcDb2dVertex
 10
1272.95632639
 20
261.00620485
 30
0.0
  0
VERTEX
  5
23A
100
AcDbEntity
  8
0
100
AcDbVertex
100
AcDb2dVertex
 10
1270.95632639
 20
261.00620485
 30
0.0
  0
VERTEX
  5
23B
100
AcDbEntity
  8
0
100
AcDbVertex
100
AcDb2dVertex
 10
1270.95632639
 20
179.83463198
 30
0.0
  0
SEQEND
  5
23C
100
AcDbEntity
  8
0
  0
LINE
  5
23D
100
AcDbEntity
  8
0
100
AcDbLine
 10
1045.95632639
 20
179.83463198
 30
0.0
 11
1270.95632639
 21
179.83463198
 31
0.0
  0
LINE
  5
23E
100
AcDbEntity
  8
0
100
AcDbLine
 10
1045.95632639
 20
381.00620485
 30
0.0
 11
1045.95632639
 21
179.83463198
 31
0.0
  0
LINE
  5
23F
100
AcDbEntity
  8
0
100
AcDbLine
 10
1272.95632639
 20
381.00620485
 30
0.0
 11
1045.95632639
 21
381.00620485
 31
0.0
  0
LINE
  5
240
100
AcDbEntity
  8
0
100
AcDbLine
 10
1272.95632639
 20
261.00620485
 30
0.0
 11
1272.95632639
 21
381.00620485
 31
0.0
  0
LINE
  5
241
100
AcDbEntity
  8
0
100
AcDbLine
 10
1045.95632639
 20
179.83463198
 30
0.0
 11
1045.95632639
 21
-258.99379515
 31
0.0
  0
LINE
  5
242
100
AcDbEntity
  8
0
100
AcDbLine
 10
1270.95632639
 20
-258.99379515
 30
0.0
 11
1045.95632639
 21
-258.99379515
 31
0.0
  0
LINE
  5
243
100
AcDbEntity
  8
0
100
AcDbLine
 10
1270.95632639
 20
179.83463198
 30
0.0
 11
1270.95632639
 21
-258.99379515
 31
0.0
  0
ENDBLK
  5
244
100
AcDbEntity
  8
0
100
AcDbBlockEnd
  0
BLOCK
  5
245
100
AcDbEntity
  8
0
100
AcDbBlockBegin
  2
ANS3D04_00025
 70
    64
 10
0.0
 20
0.0
 30
0.0
  3
ANS3D04_00025
  0
INSERT
  5
246
100
AcDbEntity
  8
0
100
AcDbBlockReference
  2
FIG3D04_00026
 10
0.0
 20
0.0
 30
0.0
  0
ENDBLK
  5
247
100
AcDbEntity
  8
0
100
AcDbBlockEnd
  0
BLOCK
  5
248
100
AcDbEntity
  8
0
100
AcDbBlockBegin
  2
FIG3D04_00026
 70
    64
 10
0.0
 20
0.0
 30
0.0
  3
FIG3D04_00026
  0
INSERT
  5
249
100
AcDbEntity
  8
0
100
AcDbBlockReference
  2
JR60_00027
 10
0.0
 20
0.0
 30
0.0
  0
ENDBLK
  5
24A
100
AcDbEntity
  8
0
100
AcDbBlockEnd
  0
BLOCK
  5
24B
100
AcDbEntity
  8
0
100
AcDbBlockBegin
  2
JR60_00027
 70
    64
 10
0.0
 20
0.0
 30
0.0
  3
JR60_00027
  0
INSERT
  5
24C
100
AcDbEntity
  8
0
100
AcDbBlockReference
  2
GEHÄUSE_00028
 10
0.0
 20
0.0
 30
0.0
  0
INSERT
  5
24D
100
AcDbEntity
  8
0
100
AcDbBlockReference
  2
SCHUTZHAUBE_00030
 10
0.0
 20
0.0
 30
0.0
  0
ENDBLK
  5
24E
100
AcDbEntity
  8
0
100
AcDbBlockEnd
  0
BLOCK
  5
24F
100
AcDbEntity
  8
0
100
AcDbBlockBegin
  2
GEHÄUSE_00028
 70
    64
 10
0.0
 20
0.0
 30
0.0
  3
GEHÄUSE_00028
  0
INSERT
  5
250
100
AcDbEntity
  8
0
100
AcDbBlockReference
  2
_GEHÄUSE_00029
 10
-122.21482824
 20
-697.48079580
 30
0.0
  0
ENDBLK
  5
251
100
AcDbEntity
  8
0
100
AcDbBlockEnd
  0
BLOCK
  5
252
100
AcDbEntity
  8
0
100
AcDbBlockBegin
  2
_GEHÄUSE_00029
 70
    64
 10
-122.21482824
 20
-697.48079580
 30
0.0
  3
_GEHÄUSE_00029
  0
LINE
  5
253
100
AcDbEntity
  8
0
100
AcDbLine
 10
-122.21482824
 20
-697.48079580
 30
0.0
 11
-122.21482824
 21
-1063.48079580
 31
0.0
  0
LINE
  5
254
100
AcDbEntity
  8
0
100
AcDbLine
 10
622.78517176
 20
-1063.48079580
 30
0.0
 11
622.78517176
 21
-697.48079580
 31
0.0
  0
ENDBLK
  5
255
100
AcDbEntity
  8
0
100
AcDbBlockEnd
  0
BLOCK
  5
256
100
AcDbEntity
  8
0
100
AcDbBlockBegin
  2
SCHUTZHAUBE_00030
 70
    64
 10
0.0
 20
0.0
 30
0.0
  3
SCHUTZHAUBE_00030
  0
INSERT
  5
257
100
AcDbEntity
  8
0
100
AcDbBlockReference
  2
SCHUTZHAUBE_00031
 10
0.0
 20
0.0
 30
0.0
  0
INSERT
  5
258
100
AcDbEntity
  8
0
100
AcDbBlockReference
  2
SCHUTZHAUBE_00033
 10
0.0
 20
0.0
 30
0.0
  0
ENDBLK
  5
259
100
AcDbEntity
  8
0
100
AcDbBlockEnd
  0
BLOCK
  5
25A
100
AcDbEntity
  8
0
100
AcDbBlockBegin
  2
SCHUTZHAUBE_00031
 70
    64
 10
0.0
 20
0.0
 30
0.0
  3
SCHUTZHAUBE_00031
  0
INSERT
  5
25B
100
AcDbEntity
  8
0
100
AcDbBlockReference
  2
_SCHUTZHAUBE_00032
 10
-249.71482824
 20
-1065.48079580
 30
0.0
  0
ENDBLK
  5
25C
100
AcDbEntity
  8
0
100
AcDbBlockEnd
  0
BLOCK
  5
25D
100
AcDbEntity
  8
0
100
AcDbBlockBegin
  2
_SCHUTZHAUBE_00032
 70
    64
 10
-249.71482824
 20
-1065.48079580
 30
0.0
  3
_SCHUTZHAUBE_00032
  0
POLYLINE
  5
25E
100
AcDbEntity
  8
0
100
AcDb2dPolyline
 66
     1
  0
VERTEX
  5
25F
100
AcDbEntity
  8
0
100
AcDbVertex
100
AcDb2dVertex
 10
-249.71482824
 20
-1065.48079580
 30
0.0
  0
VERTEX
  5
260
100
AcDbEntity
  8
0
100
AcDbVertex
100
AcDb2dVertex
 10
-168.54325536
 20
-1065.48079580
 30
0.0
  0
VERTEX
  5
261
100
AcDbEntity
  8
0
100
AcDbVertex
100
AcDb2dVertex
 10
-168.54325536
 20
-1063.48079580
 30
0.0
  0
VERTEX
  5
262
100
AcDbEntity
  8
0
100
AcDbVertex
100
AcDb2dVertex
 10
-48.54325536
 20
-1063.48079580
 30
0.0
  0
VERTEX
  5
263
100
AcDbEntity
  8
0
100
AcDbVertex
100
AcDb2dVertex
 10
-48.54325536
 20
-1290.48079580
 30
0.0
  0
VERTEX
  5
264
100
AcDbEntity
  8
0
100
AcDbVertex
100
AcDb2dVertex
 10
-249.71482824
 20
-1290.48079580
 30
0.0
  0
VERTEX
  5
265
100
AcDbEntity
  8
0
100
AcDbVertex
100
AcDb2dVertex
 10
-249.71482824
 20
-1065.48079580
 30
0.0
  0
SEQEND
  5
266
100
AcDbEntity
  8
0
  0
LINE
  5
267
100
AcDbEntity
  8
0
100
AcDbLine
 10
549.11359889
 20
-1290.48079580
 30
0.0
 11
-48.54325536
 21
-1290.48079580
 31
0.0
  0
LINE
  5
268
100
AcDbEntity
  8
0
100
AcDbLine
 10
549.11359889
 20
-1290.48079580
 30
0.0
 11
549.11359889
 21
-1063.48079580
 31
0.0
  0
POLYLINE
  5
269
100
AcDbEntity
  8
0
100
AcDb2dPolyline
 66
     1
  0
VERTEX
  5
26A
100
AcDbEntity
  8
0
100
AcDbVertex
100
AcDb2dVertex
 10
-48.54325536
 20
-1063.48079580
 30
0.0
  0
VERTEX
  5
26B
100
AcDbEntity
  8
0
100
AcDbVertex
100
AcDb2dVertex
 10
549.11359889
 20
-1063.48079580
 30
0.0
  0
VERTEX
  5
26C
100
AcDbEntity
  8
0
100
AcDbVertex
100
AcDb2dVertex
 10
669.11359889
 20
-1063.48079580
 30
0.0
  0
VERTEX
  5
26D
100
AcDbEntity
  8
0
100
AcDbVertex
100
AcDb2dVertex
 10
669.11359889
 20
-1065.48079580
 30
0.0
  0
VERTEX
  5
26E
100
AcDbEntity
  8
0
100
AcDbVertex
100
AcDb2dVertex
 10
750.28517176
 20
-1065.48079580
 30
0.0
  0
VERTEX
  5
26F
100
AcDbEntity
  8
0
100
AcDbVertex
100
AcDb2dVertex
 10
750.28517176
 20
-1290.48079580
 30
0.0
  0
VERTEX
  5
270
100
AcDbEntity
  8
0
100
AcDbVertex
100
AcDb2dVertex
 10
549.11359889
 20
-1290.48079580
 30
0.0
  0
SEQEND
  5
271
100
AcDbEntity
  8
0
  0
ENDBLK
  5
272
100
AcDbEntity
  8
0
100
AcDbBlockEnd
  0
BLOCK
  5
273
100
AcDbEntity
  8
0
100
AcDbBlockBegin
  2
SCHUTZHAUBE_00033
 70
    64
 10
0.0
 20
0.0
 30
0.0
  3
SCHUTZHAUBE_00033
  0
INSERT
  5
274
100
AcDbEntity
  8
0
100
AcDbBlockReference
  2
_SCHUTZHAUBE_00034
 10
669.11359889
 20
-695.48079580
 30
0.0
  0
ENDBLK
  5
275
100
AcDbEntity
  8
0
100
AcDbBlockEnd
  0
BLOCK
  5
276
100
AcDbEntity
  8
0
100
AcDbBlockBegin
  2
_SCHUTZHAUBE_00034
 70
    64
 10
669.11359889
 20
-695.48079580
 30
0.0
  3
_SCHUTZHAUBE_00034
  0
LINE
  5
277
100
AcDbEntity
  8
0
100
AcDbLine
 10
669.11359889
 20
-695.48079580
 30
0.0
 11
669.11359889
 21
-697.48079580
 31
0.0
  0
LINE
  5
278
100
AcDbEntity
  8
0
100
AcDbLine
 10
549.11359889
 20
-697.48079580
 30
0.0
 11
669.11359889
 21
-697.48079580
 31
0.0
  0
LINE
  5
279
100
AcDbEntity
  8
0
100
AcDbLine
 10
549.11359889
 20
-470.48079580
 30
0.0
 11
549.11359889
 21
-697.48079580
 31
0.0
  0
LINE
  5
27A
100
AcDbEntity
  8
0
100
AcDbLine
 10
750.28517176
 20
-470.48079580
 30
0.0
 11
549.11359889
 21
-470.48079580
 31
0.0
  0
LINE
  5
27B
100
AcDbEntity
  8
0
100
AcDbLine
 10
750.28517176
 20
-695.48079580
 30
0.0
 11
750.28517176
 21
-470.48079580
 31
0.0
  0
LINE
  5
27C
100
AcDbEntity
  8
0
100
AcDbLine
 10
750.28517176
 20
-695.48079580
 30
0.0
 11
669.11359889
 21
-695.48079580
 31
0.0
  0
LINE
  5
27D
100
AcDbEntity
  8
0
100
AcDbLine
 10
549.11359889
 20
-470.48079580
 30
0.0
 11
-48.54325536
 21
-470.48079580
 31
0.0
  0
LINE
  5
27E
100
AcDbEntity
  8
0
100
AcDbLine
 10
-48.54325536
 20
-697.48079580
 30
0.0
 11
-48.54325536
 21
-470.48079580
 31
0.0
  0
LINE
  5
27F
100
AcDbEntity
  8
0
100
AcDbLine
 10
-48.54325536
 20
-697.48079580
 30
0.0
 11
549.11359889
 21
-697.48079580
 31
0.0
  0
LINE
  5
280
100
AcDbEntity
  8
0
100
AcDbLine
 10
-168.54325536
 20
-697.48079580
 30
0.0
 11
-48.54325536
 21
-697.48079580
 31
0.0
  0
POLYLINE
  5
281
100
AcDbEntity
  8
0
100
AcDb2dPolyline
 66
     1
  0
VERTEX
  5
282
100
AcDbEntity
  8
0
100
AcDbVertex
100
AcDb2dVertex
 10
-168.54325536
 20
-697.48079580
 30
0.0
  0
VERTEX
  5
283
100
AcDbEntity
  8
0
100
AcDbVertex
100
AcDb2dVertex
 10
-168.54325536
 20
-695.48079580
 30
0.0
  0
VERTEX
  5
284
100
AcDbEntity
  8
0
100
AcDbVertex
100
AcDb2dVertex
 10
-249.71482824
 20
-695.48079580
 30
0.0
  0
SEQEND
  5
285
100
AcDbEntity
  8
0
  0
LINE
  5
286
100
AcDbEntity
  8
0
100
AcDbLine
 10
-249.71482824
 20
-470.48079580
 30
0.0
 11
-249.71482824
 21
-695.48079580
 31
0.0
  0
LINE
  5
287
100
AcDbEntity
  8
0
100
AcDbLine
 10
-48.54325536
 20
-470.48079580
 30
0.0
 11
-249.71482824
 21
-470.48079580
 31
0.0
  0
ENDBLK
  5
288
100
AcDbEntity
  8
0
100
AcDbBlockEnd
  0
BLOCK
  5
289
100
AcDbEntity
  8
0
100
AcDbBlockBegin
  2
ANS3D05_00035
 70
    64
 10
0.0
 20
0.0
 30
0.0
  3
ANS3D05_00035
  0
INSERT
  5
28A
100
AcDbEntity
  8
0
100
AcDbBlockReference
  2
FIG3D05_00036
 10
0.0
 20
0.0
 30
0.0
  0
ENDBLK
  5
28B
100
AcDbEntity
  8
0
100
AcDbBlockEnd
  0
BLOCK
  5
28C
100
AcDbEntity
  8
0
100
AcDbBlockBegin
  2
FIG3D05_00036
 70
    64
 10
0.0
 20
0.0
 30
0.0
  3
FIG3D05_00036
  0
INSERT
  5
28D
100
AcDbEntity
  8
0
100
AcDbBlockReference
  2
JR60_00037
 10
0.0
 20
0.0
 30
0.0
  0
ENDBLK
  5
28E
100
AcDbEntity
  8
0
100
AcDbBlockEnd
  0
BLOCK
  5
28F
100
AcDbEntity
  8
0
100
AcDbBlockBegin
  2
JR60_00037
 70
    64
 10
0.0
 20
0.0
 30
0.0
  3
JR60_00037
  0
INSERT
  5
290
100
AcDbEntity
  8
0
100
AcDbBlockReference
  2
GEHÄUSE_00038
 10
0.0
 20
0.0
 30
0.0
  0
INSERT
  5
291
100
AcDbEntity
  8
0
100
AcDbBlockReference
  2
ANSCHLUßFLANSCH_00040
 10
0.0
 20
0.0
 30
0.0
  0
INSERT
  5
292
100
AcDbEntity
  8
0
100
AcDbBlockReference
  2
FLIEHGEWICHT_00042
 10
0.0
 20
0.0
 30
0.0
  0
INSERT
  5
293
100
AcDbEntity
  8
0
100
AcDbBlockReference
  2
SCHUTZHAUBE_00051
 10
0.0
 20
0.0
 30
0.0
  0
ENDBLK
  5
294
100
AcDbEntity
  8
0
100
AcDbBlockEnd
  0
BLOCK
  5
295
100
AcDbEntity
  8
0
100
AcDbBlockBegin
  2
GEHÄUSE_00038
 70
    64
 10
0.0
 20
0.0
 30
0.0
  3
GEHÄUSE_00038
  0
INSERT
  5
296
100
AcDbEntity
  8
0
100
AcDbBlockReference
  2
_GEHÄUSE_00039
 10
2318.22124195
 20
-1172.45618894
 30
0.0
  0
ENDBLK
  5
297
100
AcDbEntity
  8
0
100
AcDbBlockEnd
  0
BLOCK
  5
298
100
AcDbEntity
  8
0
100
AcDbBlockBegin
  2
_GEHÄUSE_00039
 70
    64
 10
2318.22124195
 20
-1172.45618894
 30
0.0
  3
_GEHÄUSE_00039
  0
POLYLINE
  5
299
100
AcDbEntity
  8
0
100
AcDb2dPolyline
 66
     1
  0
VERTEX
  5
29A
100
AcDbEntity
  8
0
100
AcDbVertex
100
AcDb2dVertex
 10
2318.22124195
 20
-1172.45618894
 30
0.0
  0
VERTEX
  5
29B
100
AcDbEntity
  8
0
100
AcDbVertex
100
AcDb2dVertex
 10
2329.77066726
 20
-1162.27055321
 30
0.0
  0
VERTEX
  5
29C
100
AcDbEntity
  8
0
100
AcDbVertex
100
AcDb2dVertex
 10
2329.77066726
 20
-1132.10066388
 30
0.0
  0
SEQEND
  5
29D
100
AcDbEntity
  8
0
  0
LINE
  5
29E
100
AcDbEntity
  8
0
100
AcDbLine
 10
2318.22124195
 20
-1142.28629961
 30
0.0
 11
2329.77066726
 21
-1132.10066388
 31
0.0
  0
LINE
  5
29F
100
AcDbEntity
  8
0
100
AcDbLine
 10
2329.77066726
 20
-1023.67762410
 30
0.0
 11
2318.22124195
 21
-1033.86325983
 31
0.0
  0
LINE
  5
2A0
100
AcDbEntity
  8
0
100
AcDbLine
 10
2329.77066726
 20
-1023.67762410
 30
0.0
 11
2329.77066726
 21
-663.29445782
 31
0.0
  0
LINE
  5
2A1
100
AcDbEntity
  8
0
100
AcDbLine
 10
2221.33115722
 20
-758.21641980
 30
0.0
 11
2329.06356048
 21
-663.20537074
 31
0.0
  0
LINE
  5
2A2
100
AcDbEntity
  8
0
100
AcDbLine
 10
1632.17987219
 20
-575.40627874
 30
0.0
 11
1615.02905284
 21
-590.53187967
 31
0.0
  0
LINE
  5
2A3
100
AcDbEntity
  8
0
100
AcDbLine
 10
2329.77066726
 20
-1132.10066388
 30
0.0
 11
2318.22124195
 21
-1130.64557307
 31
0.0
  0
ENDBLK
  5
2A4
100
AcDbEntity
  8
0
100
AcDbBlockEnd
  0
BLOCK
  5
2A5
100
AcDbEntity
  8
0
100
AcDbBlockBegin
  2
ANSCHLUßFLANSCH_00040
 70
    64
 10
0.0
 20
0.0
 30
0.0
  3
ANSCHLUßFLANSCH_00040
  0
INSERT
  5
2A6
100
AcDbEntity
  8
0
100
AcDbBlockReference
  2
_ANSCHLUßFLANSCH_00041
 10
1625.95724676
 20
-911.70324195
 30
0.0
  0
ENDBLK
  5
2A7
100
AcDbEntity
  8
0
100
AcDbBlockEnd
  0
BLOCK
  5
2A8
100
AcDbEntity
  8
0
100
AcDbBlockBegin
  2
_ANSCHLUßFLANSCH_00041
 70
    64
 10
1625.95724676
 20
-911.70324195
 30
0.0
  3
_ANSCHLUßFLANSCH_00041
  0
ELLIPSE
  5
2A9
100
AcDbEntity
  8
0
100
AcDbEllipse
 10
1630.42195210
 20
-916.76574195
 30
0.0
 11
4.46470534
 21
-5.06250000
 31
0.0
 40
0.88191710
 41
3.14159265
 42
0.00000000
  0
ELLIPSE
  5
2AA
100
AcDbEntity
  8
0
100
AcDbEllipse
 10
1630.42195210
 20
-916.76574195
 30
0.0
 11
4.46470534
 21
-5.06250000
 31
0.0
 40
0.88191710
 41
6.28318531
 42
3.14159265
  0
ELLIPSE
  5
2AB
100
AcDbEntity
  8
0
100
AcDbEllipse
 10
1635.72525296
 20
-912.08867022
 30
0.0
 11
4.46470534
 21
-5.06250000
 31
0.0
 40
0.88191710
 41
3.77750761
 42
5.64727035
  0
ELLIPSE
  5
2AC
100
AcDbEntity
  8
0
100
AcDbEllipse
 10
1669.78231398
 20
-961.39619725
 30
0.0
 11
4.46470534
 21
-5.06250000
 31
0.0
 40
0.88191710
 41
3.14159265
 42
0.00000000
  0
ELLIPSE
  5
2AD
100
AcDbEntity
  8
0
100
AcDbEllipse
 10
1669.78231398
 20
-961.39619725
 30
0.0
 11
4.46470534
 21
-5.06250000
 31
0.0
 40
0.88191710
 41
6.28318531
 42
3.14159265
  0
ELLIPSE
  5
2AE
100
AcDbEntity
  8
0
100
AcDbEllipse
 10
1675.08561483
 20
-956.71912552
 30
0.0
 11
4.46470534
 21
-5.06250000
 31
0.0
 40
0.88191710
 41
3.77750761
 42
5.64727035
  0
ELLIPSE
  5
2AF
100
AcDbEntity
  8
0
100
AcDbEllipse
 10
1669.78231398
 20
-1017.50019297
 30
0.0
 11
4.46470534
 21
-5.06250000
 31
0.0
 40
0.88191710
 41
3.14159265
 42
0.00000000
  0
ELLIPSE
  5
2B0
100
AcDbEntity
  8
0
100
AcDbEllipse
 10
1669.78231398
 20
-1017.50019297
 30
0.0
 11
4.46470534
 21
-5.06250000
 31
0.0
 40
0.88191710
 41
6.28318531
 42
3.14159265
  0
ELLIPSE
  5
2B1
100
AcDbEntity
  8
0
100
AcDbEllipse
 10
1675.08561483
 20
-1012.82312124
 30
0.0
 11
4.46470534
 21
-5.06250000
 31
0.0
 40
0.88191710
 41
3.77750761
 42
5.64727035
  0
ELLIPSE
  5
2B2
100
AcDbEntity
  8
0
100
AcDbEllipse
 10
1630.42195210
 20
-1052.21276931
 30
0.0
 11
4.46470534
 21
-5.06250000
 31
0.0
 40
0.88191710
 41
3.14159265
 42
6.28318531
  0
ELLIPSE
  5
2B3
100
AcDbEntity
  8
0
100
AcDbEllipse
 10
1630.42195210
 20
-1052.21276931
 30
0.0
 11
4.46470534
 21
-5.06250000
 31
0.0
 40
0.88191710
 41
0.0
 42
3.14159265
  0
ELLIPSE
  5
2B4
100
AcDbEntity
  8
0
100
AcDbEllipse
 10
1635.72525296
 20
-1047.53569758
 30
0.0
 11
4.46470534
 21
-5.06250000
 31
0.0
 40
0.88191710
 41
3.77750761
 42
5.64727035
  0
ELLIPSE
  5
2B5
100
AcDbEntity
  8
0
100
AcDbEllipse
 10
1574.75799452
 20
-1045.19976985
 30
0.0
 11
4.46470534
 21
-5.06250000
 31
0.0
 40
0.88191710
 41
3.14159265
 42
0.00000000
  0
ELLIPSE
  5
2B6
100
AcDbEntity
  8
0
100
AcDbEllipse
 10
1574.75799452
 20
-1045.19976985
 30
0.0
 11
4.46470534
 21
-5.06250000
 31
0.0
 40
0.88191710
 41
6.28318531
 42
3.14159265
  0
ELLIPSE
  5
2B7
100
AcDbEntity
  8
0
100
AcDbEllipse
 10
1580.06129538
 20
-1040.52269811
 30
0.0
 11
4.46470534
 21
-5.06250000
 31
0.0
 40
0.88191710
 41
3.77750761
 42
5.64727035
  0
ELLIPSE
  5
2B8
100
AcDbEntity
  8
0
100
AcDbEllipse
 10
1535.39763265
 20
-1000.56931455
 30
0.0
 11
4.46470534
 21
-5.06250000
 31
0.0
 40
0.88191710
 41
3.14159265
 42
6.28318531
  0
ELLIPSE
  5
2B9
100
AcDbEntity
  8
0
100
AcDbEllipse
 10
1535.39763265
 20
-1000.56931455
 30
0.0
 11
4.46470534
 21
-5.06250000
 31
0.0
 40
0.88191710
 41
6.28318531
 42
3.14159265
  0
ELLIPSE
  5
2BA
100
AcDbEntity
  8
0
100
AcDbEllipse
 10
1540.70093350
 20
-995.89224282
 30
0.0
 11
4.46470534
 21
-5.06250000
 31
0.0
 40
0.88191710
 41
3.77750761
 42
5.64727035
  0
ELLIPSE
  5
2BB
100
AcDbEntity
  8
0
100
AcDbEllipse
 10
1535.39763265
 20
-944.46531883
 30
0.0
 11
4.46470534
 21
-5.06250000
 31
0.0
 40
0.88191710
 41
3.14159265
 42
6.28318531
  0
ELLIPSE
  5
2BC
100
AcDbEntity
  8
0
100
AcDbEllipse
 10
1535.39763265
 20
-944.46531883
 30
0.0
 11
4.46470534
 21
-5.06250000
 31
0.0
 40
0.88191710
 41
6.28318531
 42
3.14159265
  0
ELLIPSE
  5
2BD
100
AcDbEntity
  8
0
100
AcDbEllipse
 10
1540.70093350
 20
-939.78824710
 30
0.0
 11
4.46470534
 21
-5.06250000
 31
0.0
 40
0.88191710
 41
3.77750761
 42
5.64727035
  0
ELLIPSE
  5
2BE
100
AcDbEntity
  8
0
100
AcDbEllipse
 10
1574.75799452
 20
-909.75274249
 30
0.0
 11
4.46470534
 21
-5.06250000
 31
0.0
 40
0.88191710
 41
3.14159265
 42
0.00000000
  0
ELLIPSE
  5
2BF
100
AcDbEntity
  8
0
100
AcDbEllipse
 10
1574.75799452
 20
-909.75274249
 30
0.0
 11
4.46470534
 21
-5.06250000
 31
0.0
 40
0.88191710
 41
6.28318531
 42
3.14159265
  0
ELLIPSE
  5
2C0
100
AcDbEntity
  8
0
100
AcDbEllipse
 10
1580.06129538
 20
-905.07567076
 30
0.0
 11
4.46470534
 21
-5.06250000
 31
0.0
 40
0.88191710
 41
3.77750761
 42
5.64727035
  0
ELLIPSE
  5
2C1
100
AcDbEntity
  8
0
100
AcDbEllipse
 10
1602.58997331
 20
-980.98275590
 30
0.0
 11
59.52940450
 21
-67.50000000
 31
0.0
 40
0.88191710
 41
0.00000000
 42
3.14159265
  0
LINE
  5
2C2
100
AcDbEntity
  8
0
100
AcDbLine
 10
1667.42267867
 20
-1043.80568417
 30
0.0
 11
1662.11937781
 21
-1048.48275590
 31
0.0
  0
ELLIPSE
  5
2C3
100
AcDbEntity
  8
0
100
AcDbEllipse
 10
1607.89327417
 20
-976.30568417
 30
0.0
 11
59.52940450
 21
-67.50000000
 31
0.0
 40
0.88191710
 41
0.00000000
 42
3.14159265
  0
LINE
  5
2C4
100
AcDbEntity
  8
0
100
AcDbLine
 10
1548.36386967
 20
-908.80568417
 30
0.0
 11
1543.06056881
 21
-913.48275590
 31
0.0
  0
ELLIPSE
  5
2C5
100
AcDbEntity
  8
0
100
AcDbEllipse
 10
1602.58997331
 20
-980.98275590
 30
0.0
 11
59.52940450
 21
-67.50000000
 31
0.0
 40
0.88191710
 41
3.14159265
 42
6.28318531
  0
ENDBLK
  5
2C6
100
AcDbEntity
  8
0
100
AcDbBlockEnd
  0
BLOCK
  5
2C7
100
AcDbEntity
  8
0
100
AcDbBlockBegin
  2
FLIEHGEWICHT_00042
 70
    64
 10
0.0
 20
0.0
 30
0.0
  3
FLIEHGEWICHT_00042
  0
INSERT
  5
2C8
100
AcDbEntity
  8
0
100
AcDbBlockReference
  2
FLIEHGEWICHT_00043
 10
0.0
 20
0.0
 30
0.0
  0
INSERT
  5
2C9
100
AcDbEntity
  8
0
100
AcDbBlockReference
  2
FLIEHGEWICHT_00046
 10
0.0
 20
0.0
 30
0.0
  0
ENDBLK
  5
2CA
100
AcDbEntity
  8
0
100
AcDbBlockEnd
  0
BLOCK
  5
2CB
100
AcDbEntity
  8
0
100
AcDbBlockBegin
  2
FLIEHGEWICHT_00043
 70
    64
 10
0.0
 20
0.0
 30
0.0
  3
FLIEHGEWICHT_00043
  0
INSERT
  5
2CC
100
AcDbEntity
  8
0
100
AcDbBlockReference
  2
FLIEHGEWICHT_00044
 10
0.0
 20
0.0
 30
0.0
  0
ENDBLK
  5
2CD
100
AcDbEntity
  8
0
100
AcDbBlockEnd
  0
BLOCK
  5
2CE
100
AcDbEntity
  8
0
100
AcDbBlockBegin
  2
FLIEHGEWICHT_00044
 70
    64
 10
0.0
 20
0.0
 30
0.0
  3
FLIEHGEWICHT_00044
  0
INSERT
  5
2CF
100
AcDbEntity
  8
0
100
AcDbBlockReference
  2
_FLIEHGEWICHT_00045
 10
1689.98734704
 20
-967.84462908
 30
0.0
  0
ENDBLK
  5
2D0
100
AcDbEntity
  8
0
100
AcDbBlockEnd
  0
BLOCK
  5
2D1
100
AcDbEntity
  8
0
100
AcDbBlockBegin
  2
_FLIEHGEWICHT_00045
 70
    64
 10
1689.98734704
 20
-967.84462908
 30
0.0
  3
_FLIEHGEWICHT_00045
  0
ELLIPSE
  5
2D2
100
AcDbEntity
  8
0
100
AcDbEllipse
 10
1648.90546748
 20
-940.13632943
 30
0.0
 11
33.07189139
 21
-37.50000000
 31
0.0
 40
0.88191710
 41
0.28703794
 42
0.37993561
  0
ELLIPSE
  5
2D3
100
AcDbEntity
  8
0
100
AcDbEllipse
 10
1648.90546748
 20
-940.13632943
 30
0.0
 11
33.07189139
 21
-37.50000000
 31
0.0
 40
0.88191710
 41
2.76165704
 42
2.85455471
  0
ENDBLK
  5
2D4
100
AcDbEntity
  8
0
100
AcDbBlockEnd
  0
BLOCK
  5
2D5
100
AcDbEntity
  8
0
100
AcDbBlockBegin
  2
FLIEHGEWICHT_00046
 70
    64
 10
0.0
 20
0.0
 30
0.0
  3
FLIEHGEWICHT_00046
  0
INSERT
  5
2D6
100
AcDbEntity
  8
0
100
AcDbBlockReference
  2
FLIEHGEWICHT_00047
 10
0.0
 20
0.0
 30
0.0
  0
INSERT
  5
2D7
100
AcDbEntity
  8
0
100
AcDbBlockReference
  2
FLIEHGEWICHT_00049
 10
0.0
 20
0.0
 30
0.0
  0
ENDBLK
  5
2D8
100
AcDbEntity
  8
0
100
AcDbBlockEnd
  0
BLOCK
  5
2D9
100
AcDbEntity
  8
0
100
AcDbBlockBegin
  2
FLIEHGEWICHT_00047
 70
    64
 10
0.0
 20
0.0
 30
0.0
  3
FLIEHGEWICHT_00047
  0
INSERT
  5
2DA
100
AcDbEntity
  8
0
100
AcDbBlockReference
  2
_FLIEHGEWICHT_00048
 10
1614.93782587
 20
-573.23398509
 30
0.0
  0
ENDBLK
  5
2DB
100
AcDbEntity
  8
0
100
AcDbBlockEnd
  0
BLOCK
  5
2DC
100
AcDbEntity
  8
0
100
AcDbBlockBegin
  2
_FLIEHGEWICHT_00048
 70
    64
 10
1614.93782587
 20
-573.23398509
 30
0.0
  3
_FLIEHGEWICHT_00048
  0
ELLIPSE
  5
2DD
100
AcDbEntity
  8
0
100
AcDbEllipse
 10
1821.43952209
 20
-787.97559570
 30
0.0
 11
197.10847267
 21
-223.50000000
 31
0.0
 40
0.88191710
 41
3.19046102
 42
3.27068489
  0
ENDBLK
  5
2DE
100
AcDbEntity
  8
0
100
AcDbBlockEnd
  0
BLOCK
  5
2DF
100
AcDbEntity
  8
0
100
AcDbBlockBegin
  2
FLIEHGEWICHT_00049
 70
    64
 10
0.0
 20
0.0
 30
0.0
  3
FLIEHGEWICHT_00049
  0
INSERT
  5
2E0
100
AcDbEntity
  8
0
100
AcDbBlockReference
  2
_FLIEHGEWICHT_00050
 10
2318.22124195
 20
-1067.44902516
 30
0.0
  0
ENDBLK
  5
2E1
100
AcDbEntity
  8
0
100
AcDbBlockEnd
  0
BLOCK
  5
2E2
100
AcDbEntity
  8
0
100
AcDbBlockBegin
  2
_FLIEHGEWICHT_00050
 70
    64
 10
2318.22124195
 20
-1067.44902516
 30
0.0
  3
_FLIEHGEWICHT_00050
  0
ELLIPSE
  5
2E3
100
AcDbEntity
  8
0
100
AcDbEllipse
 10
2191.06915222
 20
-801.40415782
 30
0.0
 11
197.10847267
 21
-223.50000000
 31
0.0
 40
0.88191710
 41
5.97144593
 42
0.00000000
  0
ELLIPSE
  5
2E4
100
AcDbEntity
  8
0
100
AcDbEllipse
 10
2191.06915222
 20
-801.40415782
 30
0.0
 11
197.10847267
 21
-223.50000000
 31
0.0
 40
0.88191710
 41
0.00000000
 42
0.37942533
  0
ELLIPSE
  5
2E5
100
AcDbEntity
  8
0
100
AcDbEllipse
 10
2215.81788956
 20
-779.57782307
 30
0.0
 11
197.10847267
 21
-223.50000000
 31
0.0
 40
0.88191710
 41
0.00000000
 42
0.19359308
  0
LINE
  5
2E6
100
AcDbEntity
  8
0
100
AcDbLine
 10
2388.17762490
 20
-1024.90415782
 30
0.0
 11
2412.92636224
 21
-1003.07782307
 31
0.0
  0
ENDBLK
  5
2E7
100
AcDbEntity
  8
0
100
AcDbBlockEnd
  0
BLOCK
  5
2E8
100
AcDbEntity
  8
0
100
AcDbBlockBegin
  2
SCHUTZHAUBE_00051
 70
    64
 10
0.0
 20
0.0
 30
0.0
  3
SCHUTZHAUBE_00051
  0
INSERT
  5
2E9
100
AcDbEntity
  8
0
100
AcDbBlockReference
  2
SCHUTZHAUBE_00052
 10
0.0
 20
0.0
 30
0.0
  0
INSERT
  5
2EA
100
AcDbEntity
  8
0
100
AcDbBlockReference
  2
SCHUTZHAUBE_00054
 10
0.0
 20
0.0
 30
0.0
  0
ENDBLK
  5
2EB
100
AcDbEntity
  8
0
100
AcDbBlockEnd
  0
BLOCK
  5
2EC
100
AcDbEntity
  8
0
100
AcDbBlockBegin
  2
SCHUTZHAUBE_00052
 70
    64
 10
0.0
 20
0.0
 30
0.0
  3
SCHUTZHAUBE_00052
  0
INSERT
  5
2ED
100
AcDbEntity
  8
0
100
AcDbBlockReference
  2
_SCHUTZHAUBE_00053
 10
1536.44619053
 20
-905.98275590
 30
0.0
  0
ENDBLK
  5
2EE
100
AcDbEntity
  8
0
100
AcDbBlockEnd
  0
BLOCK
  5
2EF
100
AcDbEntity
  8
0
100
AcDbBlockBegin
  2
_SCHUTZHAUBE_00053
 70
    64
 10
1536.44619053
 20
-905.98275590
 30
0.0
  3
_SCHUTZHAUBE_00053
  0
ELLIPSE
  5
2F0
100
AcDbEntity
  8
0
100
AcDbEllipse
 10
1602.58997331
 20
-980.98275590
 30
0.0
 11
66.14378278
 21
-75.00000000
 31
0.0
 40
0.88191710
 41
3.14159265
 42
6.28318531
  0
ELLIPSE
  5
2F1
100
AcDbEntity
  8
0
100
AcDbEllipse
 10
1602.58997331
 20
-980.98275590
 30
0.0
 11
66.14378278
 21
-75.00000000
 31
0.0
 40
0.88191710
 41
6.28318531
 42
3.14159265
  0
ELLIPSE
  5
2F2
100
AcDbEntity
  8
0
100
AcDbEllipse
 10
1603.29708009
 20
-980.35914634
 30
0.0
 11
66.14378278
 21
-75.00000000
 31
0.0
 40
0.88191710
 41
3.14693790
 42
6.27784006
  0
POLYLINE
  5
2F3
100
AcDbEntity
  8
0
100
AcDb2dPolyline
 66
     1
  0
VERTEX
  5
2F4
100
AcDbEntity
  8
0
100
AcDbVertex
100
AcDb2dVertex
 10
1303.25738237
 20
-821.80978833
 30
0.0
  0
VERTEX
  5
2F5
100
AcDbEntity
  8
0
100
AcDbVertex
100
AcDb2dVertex
 10
1303.25738237
 20
-1235.54119713
 30
0.0
  0
VERTEX
  5
2F6
100
AcDbEntity
  8
0
100
AcDbVertex
100
AcDb2dVertex
 10
2238.67172906
 20
-1353.39232733
 30
0.0
  0
VERTEX
  5
2F7
100
AcDbEntity
  8
0
100
AcDbVertex
100
AcDb2dVertex
 10
2238.67172906
 20
-939.66091853
 30
0.0
  0
VERTEX
  5
2F8
100
AcDbEntity
  8
0
100
AcDbVertex
100
AcDb2dVertex
 10
2050.49295365
 20
-726.28624349
 30
0.0
  0
VERTEX
  5
2F9
100
AcDbEntity
  8
0
100
AcDbVertex
100
AcDb2dVertex
 10
1491.43615778
 20
-655.85170774
 30
0.0
  0
VERTEX
  5
2FA
100
AcDbEntity
  8
0
100
AcDbVertex
100
AcDb2dVertex
 10
1303.25738237
 20
-821.80978833
 30
0.0
  0
SEQEND
  5
2FB
100
AcDbEntity
  8
0
  0
LINE
  5
2FC
100
AcDbEntity
  8
0
100
AcDbLine
 10
1571.69277745
 20
-585.07202218
 30
0.0
 11
1491.43615778
 21
-655.85170774
 31
0.0
  0
POLYLINE
  5
2FD
100
AcDbEntity
  8
0
100
AcDb2dPolyline
 66
     1
  0
VERTEX
  5
2FE
100
AcDbEntity
  8
0
100
AcDbVertex
100
AcDb2dVertex
 10
1571.69277745
 20
-585.07202218
 30
0.0
  0
VERTEX
  5
2FF
100
AcDbEntity
  8
0
100
AcDbVertex
100
AcDb2dVertex
 10
2130.74957331
 20
-655.50655792
 30
0.0
  0
VERTEX
  5
300
100
AcDbEntity
  8
0
100
AcDbVertex
100
AcDb2dVertex
 10
2242.99929492
 20
-782.78577853
 30
0.0
  0
VERTEX
  5
301
100
AcDbEntity
  8
0
100
AcDbVertex
100
AcDb2dVertex
 10
2242.29218813
 20
-783.40938810
 30
0.0
  0
VERTEX
  5
302
100
AcDbEntity
  8
0
100
AcDbVertex
100
AcDb2dVertex
 10
2318.22124195
 20
-869.50484253
 30
0.0
  0
VERTEX
  5
303
100
AcDbEntity
  8
0
100
AcDbVertex
100
AcDb2dVertex
 10
2318.22124195
 20
-1283.23625132
 30
0.0
  0
SEQEND
  5
304
100
AcDbEntity
  8
0
  0
LINE
  5
305
100
AcDbEntity
  8
0
100
AcDbLine
 10
2238.67172906
 20
-1353.39232733
 30
0.0
 11
2318.22124195
 21
-1283.23625132
 31
0.0
  0
LINE
  5
306
100
AcDbEntity
  8
0
100
AcDbLine
 10
2318.22124195
 20
-869.50484253
 30
0.0
 11
2238.67172906
 21
-939.66091853
 31
0.0
  0
LINE
  5
307
100
AcDbEntity
  8
0
100
AcDbLine
 10
2050.49295365
 20
-726.28624349
 30
0.0
 11
2130.74957331
 21
-655.50655792
 31
0.0
  0
ENDBLK
  5
308
100
AcDbEntity
  8
0
100
AcDbBlockEnd
  0
BLOCK
  5
309
100
AcDbEntity
  8
0
100
AcDbBlockBegin
  2
SCHUTZHAUBE_00054
 70
    64
 10
0.0
 20
0.0
 30
0.0
  3
SCHUTZHAUBE_00054
  0
INSERT
  5
30A
100
AcDbEntity
  8
0
100
AcDbBlockReference
  2
_SCHUTZHAUBE_00055
 10
1594.33488457
 20
-570.63825847
 30
0.0
  0
ENDBLK
  5
30B
100
AcDbEntity
  8
0
100
AcDbBlockEnd
  0
BLOCK
  5
30C
100
AcDbEntity
  8
0
100
AcDbBlockBegin
  2
_SCHUTZHAUBE_00055
 70
    64
 10
1594.33488457
 20
-570.63825847
 30
0.0
  3
_SCHUTZHAUBE_00055
  0
LINE
  5
30D
100
AcDbEntity
  8
0
100
AcDbLine
 10
1594.33488457
 20
-570.63825847
 30
0.0
 11
1594.33488457
 21
-587.92465954
 31
0.0
  0
LINE
  5
30E
100
AcDbEntity
  8
0
100
AcDbLine
 10
2318.22124195
 20
-1071.92169605
 30
0.0
 11
2447.16516777
 21
-1088.16710371
 31
0.0
  0
LINE
  5
30F
100
AcDbEntity
  8
0
100
AcDbLine
 10
1574.33852876
 20
-585.40535551
 30
0.0
 11
1591.48934811
 21
-570.27975458
 31
0.0
  0
LINE
  5
310
100
AcDbEntity
  8
0
100
AcDbLine
 10
1588.84359680
 20
-569.94642125
 30
0.0
 11
1571.69277745
 21
-585.07202218
 31
0.0
  0
POLYLINE
  5
311
100
AcDbEntity
  8
0
100
AcDb2dPolyline
 66
     1
  0
VERTEX
  5
312
100
AcDbEntity
  8
0
100
AcDbVertex
100
AcDb2dVertex
 10
2447.16516777
 20
-1167.63277964
 30
0.0
  0
VERTEX
  5
313
100
AcDbEntity
  8
0
100
AcDbVertex
100
AcDb2dVertex
 10
2449.03599647
 20
-1167.86848190
 30
0.0
  0
VERTEX
  5
314
100
AcDbEntity
  8
0
100
AcDbVertex
100
AcDb2dVertex
 10
2449.03599647
 20
-754.13707310
 30
0.0
  0
VERTEX
  5
315
100
AcDbEntity
  8
0
100
AcDbVertex
100
AcDb2dVertex
 10
2373.10694265
 20
-668.04161867
 30
0.0
  0
SEQEND
  5
316
100
AcDbEntity
  8
0
  0
POLYLINE
  5
317
100
AcDbEntity
  8
0
100
AcDb2dPolyline
 66
     1
  0
VERTEX
  5
318
100
AcDbEntity
  8
0
100
AcDbVertex
100
AcDb2dVertex
 10
2371.16829812
 20
-668.51006906
 30
0.0
  0
VERTEX
  5
319
100
AcDbEntity
  8
0
100
AcDbVertex
100
AcDb2dVertex
 10
2447.16516777
 20
-754.68241943
 30
0.0
  0
VERTEX
  5
31A
100
AcDbEntity
  8
0
100
AcDbVertex
100
AcDb2dVertex
 10
2447.16516777
 20
-1167.63277964
 30
0.0
  0
SEQEND
  5
31B
100
AcDbEntity
  8
0
  0
LINE
  5
31C
100
AcDbEntity
  8
0
100
AcDbLine
 10
2373.10694265
 20
-668.04161867
 30
0.0
 11
2372.39983587
 21
-668.66522824
 31
0.0
  0
LINE
  5
31D
100
AcDbEntity
  8
0
100
AcDbLine
 10
2260.15011427
 20
-541.38600762
 30
0.0
 11
2372.39983587
 21
-668.66522824
 31
0.0
  0
LINE
  5
31E
100
AcDbEntity
  8
0
100
AcDbLine
 10
2340.40673393
 20
-470.60632206
 30
0.0
 11
2260.15011427
 21
-541.38600762
 31
0.0
  0
LINE
  5
31F
100
AcDbEntity
  8
0
100
AcDbLine
 10
2528.58550935
 20
-683.98099710
 30
0.0
 11
2340.40673393
 21
-470.60632206
 31
0.0
  0
LINE
  5
320
100
AcDbEntity
  8
0
100
AcDbLine
 10
2528.58550935
 20
-1097.71240590
 30
0.0
 11
2528.58550935
 21
-683.98099710
 31
0.0
  0
LINE
  5
321
100
AcDbEntity
  8
0
100
AcDbLine
 10
2528.58550935
 20
-1097.71240590
 30
0.0
 11
2449.03599647
 21
-1167.86848190
 31
0.0
  0
LINE
  5
322
100
AcDbEntity
  8
0
100
AcDbLine
 10
2449.03599647
 20
-754.13707310
 30
0.0
 11
2528.58550935
 21
-683.98099710
 31
0.0
  0
LINE
  5
323
100
AcDbEntity
  8
0
100
AcDbLine
 10
2340.40673393
 20
-470.60632206
 30
0.0
 11
1781.34993807
 21
-400.17178631
 31
0.0
  0
LINE
  5
324
100
AcDbEntity
  8
0
100
AcDbLine
 10
1701.09331841
 20
-470.95147188
 30
0.0
 11
1781.34993807
 21
-400.17178631
 31
0.0
  0
LINE
  5
325
100
AcDbEntity
  8
0
100
AcDbLine
 10
1701.09331841
 20
-470.95147188
 30
0.0
 11
2260.15011427
 21
-541.38600762
 31
0.0
  0
LINE
  5
326
100
AcDbEntity
  8
0
100
AcDbLine
 10
1588.84359680
 20
-569.94642125
 30
0.0
 11
1701.09331841
 21
-470.95147188
 31
0.0
  0
LINE
  5
327
100
AcDbEntity
  8
0
100
AcDbLine
 10
2372.39983587
 20
-668.66522824
 30
0.0
 11
1588.84359680
 21
-569.94642125
 31
0.0
  0
ENDBLK
  5
328
100
AcDbEntity
  8
0
100
AcDbBlockEnd
  0
BLOCK
  5
329
100
AcDbEntity
  8
0
100
AcDbBlockBegin
  2
ANS3D06_00056
 70
    64
 10
0.0
 20
0.0
 30
0.0
  3
ANS3D06_00056
  0
INSERT
  5
32A
100
AcDbEntity
  8
0
100
AcDbBlockReference
  2
FIG3D06_00057
 10
0.0
 20
0.0
 30
0.0
  0
ENDBLK
  5
32B
100
AcDbEntity
  8
0
100
AcDbBlockEnd
  0
BLOCK
  5
32C
100
AcDbEntity
  8
0
100
AcDbBlockBegin
  2
FIG3D06_00057
 70
    64
 10
0.0
 20
0.0
 30
0.0
  3
FIG3D06_00057
  0
INSERT
  5
32D
100
AcDbEntity
  8
0
100
AcDbBlockReference
  2
JR60_00058
 10
0.0
 20
0.0
 30
0.0
  0
ENDBLK
  5
32E
100
AcDbEntity
  8
0
100
AcDbBlockEnd
  0
BLOCK
  5
32F
100
AcDbEntity
  8
0
100
AcDbBlockBegin
  2
JR60_00058
 70
    64
 10
0.0
 20
0.0
 30
0.0
  3
JR60_00058
  0
INSERT
  5
330
100
AcDbEntity
  8
0
100
AcDbBlockReference
  2
GEHÄUSE_00059
 10
0.0
 20
0.0
 30
0.0
  0
INSERT
  5
331
100
AcDbEntity
  8
0
100
AcDbBlockReference
  2
WELLE_00061
 10
0.0
 20
0.0
 30
0.0
  0
INSERT
  5
332
100
AcDbEntity
  8
0
100
AcDbBlockReference
  2
ANSCHLUßFLANSCH_00070
 10
0.0
 20
0.0
 30
0.0
  0
INSERT
  5
333
100
AcDbEntity
  8
0
100
AcDbBlockReference
  2
FLIEHGEWICHT_00072
 10
0.0
 20
0.0
 30
0.0
  0
INSERT
  5
334
100
AcDbEntity
  8
0
100
AcDbBlockReference
  2
SCHUTZHAUBE_00083
 10
0.0
 20
0.0
 30
0.0
  0
ENDBLK
  5
335
100
AcDbEntity
  8
0
100
AcDbBlockEnd
  0
BLOCK
  5
336
100
AcDbEntity
  8
0
100
AcDbBlockBegin
  2
GEHÄUSE_00059
 70
    64
 10
0.0
 20
0.0
 30
0.0
  3
GEHÄUSE_00059
  0
INSERT
  5
337
100
AcDbEntity
  8
0
100
AcDbBlockReference
  2
_GEHÄUSE_00060
 10
550.28517176
 20
922.79840064
 30
0.0
  0
ENDBLK
  5
338
100
AcDbEntity
  8
0
100
AcDbBlockEnd
  0
BLOCK
  5
339
100
AcDbEntity
  8
0
100
AcDbBlockBegin
  2
_GEHÄUSE_00060
 70
    64
 10
550.28517176
 20
922.79840064
 30
0.0
  3
_GEHÄUSE_00060
  0
CIRCLE
  5
33A
100
AcDbEntity
  8
0
100
AcDbCircle
 10
550.28517176
 20
906.29840064
 30
0.0
 40
16.50000000
  0
CIRCLE
  5
33B
100
AcDbEntity
  8
0
100
AcDbCircle
 10
-49.71482824
 20
906.29840064
 30
0.0
 40
16.50000000
  0
CIRCLE
  5
33C
100
AcDbEntity
  8
0
100
AcDbCircle
 10
70.28517176
 20
906.29840064
 30
0.0
 40
16.50000000
  0
CIRCLE
  5
33D
100
AcDbEntity
  8
0
100
AcDbCircle
 10
430.28517176
 20
906.29840064
 30
0.0
 40
16.50000000
  0
POLYLINE
  5
33E
100
AcDbEntity
  8
0
100
AcDb2dPolyline
 66
     1
  0
VERTEX
  5
33F
100
AcDbEntity
  8
0
100
AcDbVertex
100
AcDb2dVertex
 10
-122.21482824
 20
959.29840064
 30
0.0
  0
VERTEX
  5
340
100
AcDbEntity
  8
0
100
AcDbVertex
100
AcDb2dVertex
 10
622.78517176
 20
959.29840064
 30
0.0
  0
VERTEX
  5
341
100
AcDbEntity
  8
0
100
AcDbVertex
100
AcDb2dVertex
 10
622.78517176
 20
871.29840064
 30
0.0
  0
VERTEX
  5
342
100
AcDbEntity
  8
0
100
AcDbVertex
100
AcDb2dVertex
 10
-122.21482824
 20
871.29840064
 30
0.0
  0
VERTEX
  5
343
100
AcDbEntity
  8
0
100
AcDbVertex
100
AcDb2dVertex
 10
-122.21482824
 20
959.29840064
 30
0.0
  0
SEQEND
  5
344
100
AcDbEntity
  8
0
  0
CIRCLE
  5
345
100
AcDbEntity
  8
0
100
AcDbCircle
 10
550.28517176
 20
1206.29840064
 30
0.0
 40
16.50000000
  0
CIRCLE
  5
346
100
AcDbEntity
  8
0
100
AcDbCircle
 10
430.28517176
 20
1206.29840064
 30
0.0
 40
16.50000000
  0
CIRCLE
  5
347
100
AcDbEntity
  8
0
100
AcDbCircle
 10
-49.71482824
 20
1206.29840064
 30
0.0
 40
16.50000000
  0
CIRCLE
  5
348
100
AcDbEntity
  8
0
100
AcDbCircle
 10
70.28517176
 20
1206.29840064
 30
0.0
 40
16.50000000
  0
POLYLINE
  5
349
100
AcDbEntity
  8
0
100
AcDb2dPolyline
 66
     1
  0
VERTEX
  5
34A
100
AcDbEntity
  8
0
100
AcDbVertex
100
AcDb2dVertex
 10
622.78517176
 20
1241.29840064
 30
0.0
  0
VERTEX
  5
34B
100
AcDbEntity
  8
0
100
AcDbVertex
100
AcDb2dVertex
 10
622.78517176
 20
1153.29840064
 30
0.0
  0
VERTEX
  5
34C
100
AcDbEntity
  8
0
100
AcDbVertex
100
AcDb2dVertex
 10
-122.21482824
 20
1153.29840064
 30
0.0
  0
VERTEX
  5
34D
100
AcDbEntity
  8
0
100
AcDbVertex
100
AcDb2dVertex
 10
-122.21482824
 20
1241.29840064
 30
0.0
  0
VERTEX
  5
34E
100
AcDbEntity
  8
0
100
AcDbVertex
100
AcDb2dVertex
 10
622.78517176
 20
1241.29840064
 30
0.0
  0
SEQEND
  5
34F
100
AcDbEntity
  8
0
  0
LINE
  5
350
100
AcDbEntity
  8
0
100
AcDbLine
 10
622.78517176
 20
959.29840064
 30
0.0
 11
622.78517176
 21
1153.29840064
 31
0.0
  0
LINE
  5
351
100
AcDbEntity
  8
0
100
AcDbLine
 10
-122.21482824
 20
1153.29840064
 30
0.0
 11
-122.21482824
 21
959.29840064
 31
0.0
  0
ENDBLK
  5
352
100
AcDbEntity
  8
0
100
AcDbBlockEnd
  0
BLOCK
  5
353
100
AcDbEntity
  8
0
100
AcDbBlockBegin
  2
WELLE_00061
 70
    64
 10
0.0
 20
0.0
 30
0.0
  3
WELLE_00061
  0
INSERT
  5
354
100
AcDbEntity
  8
0
100
AcDbBlockReference
  2
WELLE_00062
 10
0.0
 20
0.0
 30
0.0
  0
INSERT
  5
355
100
AcDbEntity
  8
0
100
AcDbBlockReference
  2
WELLE_00064
 10
0.0
 20
0.0
 30
0.0
  0
INSERT
  5
356
100
AcDbEntity
  8
0
100
AcDbBlockReference
  2
WELLE_00066
 10
0.0
 20
0.0
 30
0.0
  0
INSERT
  5
357
100
AcDbEntity
  8
0
100
AcDbBlockReference
  2
WELLE_00068
 10
0.0
 20
0.0
 30
0.0
  0
ENDBLK
  5
358
100
AcDbEntity
  8
0
100
AcDbBlockEnd
  0
BLOCK
  5
359
100
AcDbEntity
  8
0
100
AcDbBlockBegin
  2
WELLE_00062
 70
    64
 10
0.0
 20
0.0
 30
0.0
  3
WELLE_00062
  0
INSERT
  5
35A
100
AcDbEntity
  8
0
100
AcDbBlockReference
  2
_WELLE_00063
 10
380.28517176
 20
871.29840064
 30
0.0
  0
ENDBLK
  5
35B
100
AcDbEntity
  8
0
100
AcDbBlockEnd
  0
BLOCK
  5
35C
100
AcDbEntity
  8
0
100
AcDbBlockBegin
  2
_WELLE_00063
 70
    64
 10
380.28517176
 20
871.29840064
 30
0.0
  3
_WELLE_00063
  0
LINE
  5
35D
100
AcDbEntity
  8
0
100
AcDbLine
 10
380.28517176
 20
871.29840064
 30
0.0
 11
480.28517176
 21
871.29840064
 31
0.0
  0
LINE
  5
35E
100
AcDbEntity
  8
0
100
AcDbLine
 10
480.28517176
 20
754.29840064
 30
0.0
 11
480.28517176
 21
871.29840064
 31
0.0
  0
LINE
  5
35F
100
AcDbEntity
  8
0
100
AcDbLine
 10
480.28517176
 20
661.29840064
 30
0.0
 11
480.28517176
 21
684.29840064
 31
0.0
  0
LINE
  5
360
100
AcDbEntity
  8
0
100
AcDbLine
 10
480.28517176
 20
661.29840064
 30
0.0
 11
380.28517176
 21
661.29840064
 31
0.0
  0
LINE
  5
361
100
AcDbEntity
  8
0
100
AcDbLine
 10
380.28517176
 20
754.29840064
 30
0.0
 11
380.28517176
 21
871.29840064
 31
0.0
  0
LINE
  5
362
100
AcDbEntity
  8
0
100
AcDbLine
 10
380.28517176
 20
661.29840064
 30
0.0
 11
380.28517176
 21
684.29840064
 31
0.0
  0
ENDBLK
  5
363
100
AcDbEntity
  8
0
100
AcDbBlockEnd
  0
BLOCK
  5
364
100
AcDbEntity
  8
0
100
AcDbBlockBegin
  2
WELLE_00064
 70
    64
 10
0.0
 20
0.0
 30
0.0
  3
WELLE_00064
  0
INSERT
  5
365
100
AcDbEntity
  8
0
100
AcDbBlockReference
  2
_WELLE_00065
 10
20.28517176
 20
871.29840064
 30
0.0
  0
ENDBLK
  5
366
100
AcDbEntity
  8
0
100
AcDbBlockEnd
  0
BLOCK
  5
367
100
AcDbEntity
  8
0
100
AcDbBlockBegin
  2
_WELLE_00065
 70
    64
 10
20.28517176
 20
871.29840064
 30
0.0
  3
_WELLE_00065
  0
LINE
  5
368
100
AcDbEntity
  8
0
100
AcDbLine
 10
20.28517176
 20
871.29840064
 30
0.0
 11
120.28517176
 21
871.29840064
 31
0.0
  0
LINE
  5
369
100
AcDbEntity
  8
0
100
AcDbLine
 10
120.28517176
 20
847.29840064
 30
0.0
 11
120.28517176
 21
871.29840064
 31
0.0
  0
LINE
  5
36A
100
AcDbEntity
  8
0
100
AcDbLine
 10
120.28517176
 20
661.29840064
 30
0.0
 11
120.28517176
 21
777.29840064
 31
0.0
  0
LINE
  5
36B
100
AcDbEntity
  8
0
100
AcDbLine
 10
120.28517176
 20
661.29840064
 30
0.0
 11
20.28517176
 21
661.29840064
 31
0.0
  0
LINE
  5
36C
100
AcDbEntity
  8
0
100
AcDbLine
 10
20.28517176
 20
847.29840064
 30
0.0
 11
20.28517176
 21
871.29840064
 31
0.0
  0
LINE
  5
36D
100
AcDbEntity
  8
0
100
AcDbLine
 10
20.28517176
 20
661.29840064
 30
0.0
 11
20.28517176
 21
777.29840064
 31
0.0
  0
ENDBLK
  5
36E
100
AcDbEntity
  8
0
100
AcDbBlockEnd
  0
BLOCK
  5
36F
100
AcDbEntity
  8
0
100
AcDbBlockBegin
  2
WELLE_00066
 70
    64
 10
0.0
 20
0.0
 30
0.0
  3
WELLE_00066
  0
INSERT
  5
370
100
AcDbEntity
  8
0
100
AcDbBlockReference
  2
_WELLE_00067
 10
480.28517176
 20
1451.29840064
 30
0.0
  0
ENDBLK
  5
371
100
AcDbEntity
  8
0
100
AcDbBlockEnd
  0
BLOCK
  5
372
100
AcDbEntity
  8
0
100
AcDbBlockBegin
  2
_WELLE_00067
 70
    64
 10
480.28517176
 20
1451.29840064
 30
0.0
  3
_WELLE_00067
  0
LINE
  5
373
100
AcDbEntity
  8
0
100
AcDbLine
 10
480.28517176
 20
1451.29840064
 30
0.0
 11
380.28517176
 21
1451.29840064
 31
0.0
  0
LINE
  5
374
100
AcDbEntity
  8
0
100
AcDbLine
 10
380.28517176
 20
1428.29840064
 30
0.0
 11
380.28517176
 21
1451.29840064
 31
0.0
  0
LINE
  5
375
100
AcDbEntity
  8
0
100
AcDbLine
 10
380.28517176
 20
1241.29840064
 30
0.0
 11
380.28517176
 21
1358.29840064
 31
0.0
  0
LINE
  5
376
100
AcDbEntity
  8
0
100
AcDbLine
 10
480.28517176
 20
1241.29840064
 30
0.0
 11
380.28517176
 21
1241.29840064
 31
0.0
  0
LINE
  5
377
100
AcDbEntity
  8
0
100
AcDbLine
 10
480.28517176
 20
1428.29840064
 30
0.0
 11
480.28517176
 21
1451.29840064
 31
0.0
  0
LINE
  5
378
100
AcDbEntity
  8
0
100
AcDbLine
 10
480.28517176
 20
1241.29840064
 30
0.0
 11
480.28517176
 21
1358.29840064
 31
0.0
  0
ENDBLK
  5
379
100
AcDbEntity
  8
0
100
AcDbBlockEnd
  0
BLOCK
  5
37A
100
AcDbEntity
  8
0
100
AcDbBlockBegin
  2
WELLE_00068
 70
    64
 10
0.0
 20
0.0
 30
0.0
  3
WELLE_00068
  0
INSERT
  5
37B
100
AcDbEntity
  8
0
100
AcDbBlockReference
  2
_WELLE_00069
 10
120.28517176
 20
1451.29840064
 30
0.0
  0
ENDBLK
  5
37C
100
AcDbEntity
  8
0
100
AcDbBlockEnd
  0
BLOCK
  5
37D
100
AcDbEntity
  8
0
100
AcDbBlockBegin
  2
_WELLE_00069
 70
    64
 10
120.28517176
 20
1451.29840064
 30
0.0
  3
_WELLE_00069
  0
LINE
  5
37E
100
AcDbEntity
  8
0
100
AcDbLine
 10
120.28517176
 20
1451.29840064
 30
0.0
 11
20.28517176
 21
1451.29840064
 31
0.0
  0
LINE
  5
37F
100
AcDbEntity
  8
0
100
AcDbLine
 10
20.28517176
 20
1335.29840064
 30
0.0
 11
20.28517176
 21
1451.29840064
 31
0.0
  0
LINE
  5
380
100
AcDbEntity
  8
0
100
AcDbLine
 10
20.28517176
 20
1241.29840064
 30
0.0
 11
20.28517176
 21
1265.29840064
 31
0.0
  0
LINE
  5
381
100
AcDbEntity
  8
0
100
AcDbLine
 10
120.28517176
 20
1241.29840064
 30
0.0
 11
20.28517176
 21
1241.29840064
 31
0.0
  0
LINE
  5
382
100
AcDbEntity
  8
0
100
AcDbLine
 10
120.28517176
 20
1335.29840064
 30
0.0
 11
120.28517176
 21
1451.29840064
 31
0.0
  0
LINE
  5
383
100
AcDbEntity
  8
0
100
AcDbLine
 10
120.28517176
 20
1241.29840064
 30
0.0
 11
120.28517176
 21
1265.29840064
 31
0.0
  0
ENDBLK
  5
384
100
AcDbEntity
  8
0
100
AcDbBlockEnd
  0
BLOCK
  5
385
100
AcDbEntity
  8
0
100
AcDbBlockBegin
  2
ANSCHLUßFLANSCH_00070
 70
    64
 10
0.0
 20
0.0
 30
0.0
  3
ANSCHLUßFLANSCH_00070
  0
INSERT
  5
386
100
AcDbEntity
  8
0
100
AcDbBlockReference
  2
_ANSCHLUßFLANSCH_00071
 10
-19.71482824
 20
1451.29840064
 30
0.0
  0
ENDBLK
  5
387
100
AcDbEntity
  8
0
100
AcDbBlockEnd
  0
BLOCK
  5
388
100
AcDbEntity
  8
0
100
AcDbBlockBegin
  2
_ANSCHLUßFLANSCH_00071
 70
    64
 10
-19.71482824
 20
1451.29840064
 30
0.0
  3
_ANSCHLUßFLANSCH_00071
  0
LINE
  5
389
100
AcDbEntity
  8
0
100
AcDbLine
 10
-19.71482824
 20
1451.29840064
 30
0.0
 11
-19.71482824
 21
1464.29840064
 31
0.0
  0
LINE
  5
38A
100
AcDbEntity
  8
0
100
AcDbLine
 10
160.28517176
 20
1451.29840064
 30
0.0
 11
-19.71482824
 21
1451.29840064
 31
0.0
  0
LINE
  5
38B
100
AcDbEntity
  8
0
100
AcDbLine
 10
160.28517176
 20
1451.29840064
 30
0.0
 11
160.28517176
 21
1464.29840064
 31
0.0
  0
ENDBLK
  5
38C
100
AcDbEntity
  8
0
100
AcDbBlockEnd
  0
BLOCK
  5
38D
100
AcDbEntity
  8
0
100
AcDbBlockBegin
  2
FLIEHGEWICHT_00072
 70
    64
 10
0.0
 20
0.0
 30
0.0
  3
FLIEHGEWICHT_00072
  0
INSERT
  5
38E
100
AcDbEntity
  8
0
100
AcDbBlockReference
  2
FLIEHGEWICHT_00073
 10
0.0
 20
0.0
 30
0.0
  0
INSERT
  5
38F
100
AcDbEntity
  8
0
100
AcDbBlockReference
  2
FLIEHGEWICHT_00078
 10
0.0
 20
0.0
 30
0.0
  0
ENDBLK
  5
390
100
AcDbEntity
  8
0
100
AcDbBlockEnd
  0
BLOCK
  5
391
100
AcDbEntity
  8
0
100
AcDbBlockBegin
  2
FLIEHGEWICHT_00073
 70
    64
 10
0.0
 20
0.0
 30
0.0
  3
FLIEHGEWICHT_00073
  0
INSERT
  5
392
100
AcDbEntity
  8
0
100
AcDbBlockReference
  2
FLIEHGEWICHT_00074
 10
0.0
 20
0.0
 30
0.0
  0
INSERT
  5
393
100
AcDbEntity
  8
0
100
AcDbBlockReference
  2
FLIEHGEWICHT_00076
 10
0.0
 20
0.0
 30
0.0
  0
ENDBLK
  5
394
100
AcDbEntity
  8
0
100
AcDbBlockEnd
  0
BLOCK
  5
395
100
AcDbEntity
  8
0
100
AcDbBlockBegin
  2
FLIEHGEWICHT_00074
 70
    64
 10
0.0
 20
0.0
 30
0.0
  3
FLIEHGEWICHT_00074
  0
INSERT
  5
396
100
AcDbEntity
  8
0
100
AcDbBlockReference
  2
_FLIEHGEWICHT_00075
 10
125.20341934
 20
1335.29840064
 30
0.0
  0
ENDBLK
  5
397
100
AcDbEntity
  8
0
100
AcDbBlockEnd
  0
BLOCK
  5
398
100
AcDbEntity
  8
0
100
AcDbBlockBegin
  2
_FLIEHGEWICHT_00075
 70
    64
 10
125.20341934
 20
1335.29840064
 30
0.0
  3
_FLIEHGEWICHT_00075
  0
LINE
  5
399
100
AcDbEntity
  8
0
100
AcDbLine
 10
125.20341934
 20
1335.29840064
 30
0.0
 11
155.28517176
 21
1335.29840064
 31
0.0
  0
LINE
  5
39A
100
AcDbEntity
  8
0
100
AcDbLine
 10
155.28517176
 20
1265.29840064
 30
0.0
 11
155.28517176
 21
1335.29840064
 31
0.0
  0
LINE
  5
39B
100
AcDbEntity
  8
0
100
AcDbLine
 10
125.20341934
 20
1265.29840064
 30
0.0
 11
155.28517176
 21
1265.29840064
 31
0.0
  0
LINE
  5
39C
100
AcDbEntity
  8
0
100
AcDbLine
 10
125.20341934
 20
1265.29840064
 30
0.0
 11
125.20341934
 21
1335.29840064
 31
0.0
  0
LINE
  5
39D
100
AcDbEntity
  8
0
100
AcDbLine
 10
18.53801482
 20
1335.29840064
 30
0.0
 11
125.20341934
 21
1335.29840064
 31
0.0
  0
LINE
  5
39E
100
AcDbEntity
  8
0
100
AcDbLine
 10
18.53801482
 20
1265.29840064
 30
0.0
 11
18.53801482
 21
1335.29840064
 31
0.0
  0
LINE
  5
39F
100
AcDbEntity
  8
0
100
AcDbLine
 10
18.53801482
 20
1265.29840064
 30
0.0
 11
125.20341934
 21
1265.29840064
 31
0.0
  0
LINE
  5
3A0
100
AcDbEntity
  8
0
100
AcDbLine
 10
-227.71482824
 20
1265.29840064
 30
0.0
 11
18.53801482
 21
1265.29840064
 31
0.0
  0
POLYLINE
  5
3A1
100
AcDbEntity
  8
0
100
AcDb2dPolyline
 66
     1
  0
VERTEX
  5
3A2
100
AcDbEntity
  8
0
100
AcDbVertex
100
AcDb2dVertex
 10
-227.71482824
 20
1265.29840064
 30
0.0
  0
VERTEX
  5
3A3
100
AcDbEntity
  8
0
100
AcDbVertex
100
AcDb2dVertex
 10
-227.71482824
 20
1335.29840064
 30
0.0
  0
VERTEX
  5
3A4
100
AcDbEntity
  8
0
100
AcDbVertex
100
AcDb2dVertex
 10
18.53801482
 20
1335.29840064
 30
0.0
  0
SEQEND
  5
3A5
100
AcDbEntity
  8
0
  0
ENDBLK
  5
3A6
100
AcDbEntity
  8
0
100
AcDbBlockEnd
  0
BLOCK
  5
3A7
100
AcDbEntity
  8
0
100
AcDbBlockBegin
  2
FLIEHGEWICHT_00076
 70
    64
 10
0.0
 20
0.0
 30
0.0
  3
FLIEHGEWICHT_00076
  0
INSERT
  5
3A8
100
AcDbEntity
  8
0
100
AcDbBlockReference
  2
_FLIEHGEWICHT_00077
 10
375.36692419
 20
1358.29840064
 30
0.0
  0
ENDBLK
  5
3A9
100
AcDbEntity
  8
0
100
AcDbBlockEnd
  0
BLOCK
  5
3AA
100
AcDbEntity
  8
0
100
AcDbBlockBegin
  2
_FLIEHGEWICHT_00077
 70
    64
 10
375.36692419
 20
1358.29840064
 30
0.0
  3
_FLIEHGEWICHT_00077
  0
POLYLINE
  5
3AB
100
AcDbEntity
  8
0
100
AcDb2dPolyline
 66
     1
  0
VERTEX
  5
3AC
100
AcDbEntity
  8
0
100
AcDbVertex
100
AcDb2dVertex
 10
375.36692419
 20
1358.29840064
 30
0.0
  0
VERTEX
  5
3AD
100
AcDbEntity
  8
0
100
AcDbVertex
100
AcDb2dVertex
 10
375.36692419
 20
1428.29840064
 30
0.0
  0
VERTEX
  5
3AE
100
AcDbEntity
  8
0
100
AcDbVertex
100
AcDb2dVertex
 10
482.03232871
 20
1428.29840064
 30
0.0
  0
SEQEND
  5
3AF
100
AcDbEntity
  8
0
  0
LINE
  5
3B0
100
AcDbEntity
  8
0
100
AcDbLine
 10
482.03232871
 20
1358.29840064
 30
0.0
 11
482.03232871
 21
1428.29840064
 31
0.0
  0
LINE
  5
3B1
100
AcDbEntity
  8
0
100
AcDbLine
 10
375.36692419
 20
1358.29840064
 30
0.0
 11
482.03232871
 21
1358.29840064
 31
0.0
  0
LINE
  5
3B2
100
AcDbEntity
  8
0
100
AcDbLine
 10
345.28517176
 20
1358.29840064
 30
0.0
 11
375.36692419
 21
1358.29840064
 31
0.0
  0
POLYLINE
  5
3B3
100
AcDbEntity
  8
0
100
AcDb2dPolyline
 66
     1
  0
VERTEX
  5
3B4
100
AcDbEntity
  8
0
100
AcDbVertex
100
AcDb2dVertex
 10
345.28517176
 20
1358.29840064
 30
0.0
  0
VERTEX
  5
3B5
100
AcDbEntity
  8
0
100
AcDbVertex
100
AcDb2dVertex
 10
345.28517176
 20
1428.29840064
 30
0.0
  0
VERTEX
  5
3B6
100
AcDbEntity
  8
0
100
AcDbVertex
100
AcDb2dVertex
 10
375.36692419
 20
1428.29840064
 30
0.0
  0
SEQEND
  5
3B7
100
AcDbEntity
  8
0
  0
POLYLINE
  5
3B8
100
AcDbEntity
  8
0
100
AcDb2dPolyline
 66
     1
  0
VERTEX
  5
3B9
100
AcDbEntity
  8
0
100
AcDbVertex
100
AcDb2dVertex
 10
482.03232871
 20
1358.29840064
 30
0.0
  0
VERTEX
  5
3BA
100
AcDbEntity
  8
0
100
AcDbVertex
100
AcDb2dVertex
 10
728.28517176
 20
1358.29840064
 30
0.0
  0
VERTEX
  5
3BB
100
AcDbEntity
  8
0
100
AcDbVertex
100
AcDb2dVertex
 10
728.28517176
 20
1428.29840064
 30
0.0
  0
SEQEND
  5
3BC
100
AcDbEntity
  8
0
  0
LINE
  5
3BD
100
AcDbEntity
  8
0
100
AcDbLine
 10
482.03232871
 20
1428.29840064
 30
0.0
 11
728.28517176
 21
1428.29840064
 31
0.0
  0
ENDBLK
  5
3BE
100
AcDbEntity
  8
0
100
AcDbBlockEnd
  0
BLOCK
  5
3BF
100
AcDbEntity
  8
0
100
AcDbBlockBegin
  2
FLIEHGEWICHT_00078
 70
    64
 10
0.0
 20
0.0
 30
0.0
  3
FLIEHGEWICHT_00078
  0
INSERT
  5
3C0
100
AcDbEntity
  8
0
100
AcDbBlockReference
  2
FLIEHGEWICHT_00079
 10
0.0
 20
0.0
 30
0.0
  0
INSERT
  5
3C1
100
AcDbEntity
  8
0
100
AcDbBlockReference
  2
FLIEHGEWICHT_00081
 10
0.0
 20
0.0
 30
0.0
  0
ENDBLK
  5
3C2
100
AcDbEntity
  8
0
100
AcDbBlockEnd
  0
BLOCK
  5
3C3
100
AcDbEntity
  8
0
100
AcDbBlockBegin
  2
FLIEHGEWICHT_00079
 70
    64
 10
0.0
 20
0.0
 30
0.0
  3
FLIEHGEWICHT_00079
  0
INSERT
  5
3C4
100
AcDbEntity
  8
0
100
AcDbBlockReference
  2
_FLIEHGEWICHT_00080
 10
-227.71482824
 20
777.29840064
 30
0.0
  0
ENDBLK
  5
3C5
100
AcDbEntity
  8
0
100
AcDbBlockEnd
  0
BLOCK
  5
3C6
100
AcDbEntity
  8
0
100
AcDbBlockBegin
  2
_FLIEHGEWICHT_00080
 70
    64
 10
-227.71482824
 20
777.29840064
 30
0.0
  3
_FLIEHGEWICHT_00080
  0
LINE
  5
3C7
100
AcDbEntity
  8
0
100
AcDbLine
 10
-227.71482824
 20
777.29840064
 30
0.0
 11
18.53801482
 21
777.29840064
 31
0.0
  0
LINE
  5
3C8
100
AcDbEntity
  8
0
100
AcDbLine
 10
18.53801482
 20
847.29840064
 30
0.0
 11
18.53801482
 21
777.29840064
 31
0.0
  0
LINE
  5
3C9
100
AcDbEntity
  8
0
100
AcDbLine
 10
-227.71482824
 20
847.29840064
 30
0.0
 11
18.53801482
 21
847.29840064
 31
0.0
  0
LINE
  5
3CA
100
AcDbEntity
  8
0
100
AcDbLine
 10
-227.71482824
 20
847.29840064
 30
0.0
 11
-227.71482824
 21
777.29840064
 31
0.0
  0
POLYLINE
  5
3CB
100
AcDbEntity
  8
0
100
AcDb2dPolyline
 66
     1
  0
VERTEX
  5
3CC
100
AcDbEntity
  8
0
100
AcDbVertex
100
AcDb2dVertex
 10
18.53801482
 20
847.29840064
 30
0.0
  0
VERTEX
  5
3CD
100
AcDbEntity
  8
0
100
AcDbVertex
100
AcDb2dVertex
 10
125.20341934
 20
847.29840064
 30
0.0
  0
VERTEX
  5
3CE
100
AcDbEntity
  8
0
100
AcDbVertex
100
AcDb2dVertex
 10
125.20341934
 20
777.29840064
 30
0.0
  0
SEQEND
  5
3CF
100
AcDbEntity
  8
0
  0
POLYLINE
  5
3D0
100
AcDbEntity
  8
0
100
AcDb2dPolyline
 66
     1
  0
VERTEX
  5
3D1
100
AcDbEntity
  8
0
100
AcDbVertex
100
AcDb2dVertex
 10
18.53801482
 20
777.29840064
 30
0.0
  0
VERTEX
  5
3D2
100
AcDbEntity
  8
0
100
AcDbVertex
100
AcDb2dVertex
 10
125.20341934
 20
777.29840064
 30
0.0
  0
VERTEX
  5
3D3
100
AcDbEntity
  8
0
100
AcDbVertex
100
AcDb2dVertex
 10
155.28517176
 20
777.29840064
 30
0.0
  0
SEQEND
  5
3D4
100
AcDbEntity
  8
0
  0
LINE
  5
3D5
100
AcDbEntity
  8
0
100
AcDbLine
 10
155.28517176
 20
847.29840064
 30
0.0
 11
155.28517176
 21
777.29840064
 31
0.0
  0
LINE
  5
3D6
100
AcDbEntity
  8
0
100
AcDbLine
 10
125.20341934
 20
847.29840064
 30
0.0
 11
155.28517176
 21
847.29840064
 31
0.0
  0
ENDBLK
  5
3D7
100
AcDbEntity
  8
0
100
AcDbBlockEnd
  0
BLOCK
  5
3D8
100
AcDbEntity
  8
0
100
AcDbBlockBegin
  2
FLIEHGEWICHT_00081
 70
    64
 10
0.0
 20
0.0
 30
0.0
  3
FLIEHGEWICHT_00081
  0
INSERT
  5
3D9
100
AcDbEntity
  8
0
100
AcDbBlockReference
  2
_FLIEHGEWICHT_00082
 10
345.28517176
 20
684.29840064
 30
0.0
  0
ENDBLK
  5
3DA
100
AcDbEntity
  8
0
100
AcDbBlockEnd
  0
BLOCK
  5
3DB
100
AcDbEntity
  8
0
100
AcDbBlockBegin
  2
_FLIEHGEWICHT_00082
 70
    64
 10
345.28517176
 20
684.29840064
 30
0.0
  3
_FLIEHGEWICHT_00082
  0
LINE
  5
3DC
100
AcDbEntity
  8
0
100
AcDbLine
 10
345.28517176
 20
684.29840064
 30
0.0
 11
375.36692419
 21
684.29840064
 31
0.0
  0
LINE
  5
3DD
100
AcDbEntity
  8
0
100
AcDbLine
 10
375.36692419
 20
754.29840064
 30
0.0
 11
375.36692419
 21
684.29840064
 31
0.0
  0
LINE
  5
3DE
100
AcDbEntity
  8
0
100
AcDbLine
 10
345.28517176
 20
754.29840064
 30
0.0
 11
375.36692419
 21
754.29840064
 31
0.0
  0
LINE
  5
3DF
100
AcDbEntity
  8
0
100
AcDbLine
 10
345.28517176
 20
754.29840064
 30
0.0
 11
345.28517176
 21
684.29840064
 31
0.0
  0
POLYLINE
  5
3E0
100
AcDbEntity
  8
0
100
AcDb2dPolyline
 66
     1
  0
VERTEX
  5
3E1
100
AcDbEntity
  8
0
100
AcDbVertex
100
AcDb2dVertex
 10
375.36692419
 20
754.29840064
 30
0.0
  0
VERTEX
  5
3E2
100
AcDbEntity
  8
0
100
AcDbVertex
100
AcDb2dVertex
 10
482.03232871
 20
754.29840064
 30
0.0
  0
VERTEX
  5
3E3
100
AcDbEntity
  8
0
100
AcDbVertex
100
AcDb2dVertex
 10
482.03232871
 20
684.29840064
 30
0.0
  0
SEQEND
  5
3E4
100
AcDbEntity
  8
0
  0
POLYLINE
  5
3E5
100
AcDbEntity
  8
0
100
AcDb2dPolyline
 66
     1
  0
VERTEX
  5
3E6
100
AcDbEntity
  8
0
100
AcDbVertex
100
AcDb2dVertex
 10
375.36692419
 20
684.29840064
 30
0.0
  0
VERTEX
  5
3E7
100
AcDbEntity
  8
0
100
AcDbVertex
100
AcDb2dVertex
 10
482.03232871
 20
684.29840064
 30
0.0
  0
VERTEX
  5
3E8
100
AcDbEntity
  8
0
100
AcDbVertex
100
AcDb2dVertex
 10
728.28517176
 20
684.29840064
 30
0.0
  0
SEQEND
  5
3E9
100
AcDbEntity
  8
0
  0
LINE
  5
3EA
100
AcDbEntity
  8
0
100
AcDbLine
 10
728.28517176
 20
754.29840064
 30
0.0
 11
728.28517176
 21
684.29840064
 31
0.0
  0
LINE
  5
3EB
100
AcDbEntity
  8
0
100
AcDbLine
 10
482.03232871
 20
754.29840064
 30
0.0
 11
728.28517176
 21
754.29840064
 31
0.0
  0
ENDBLK
  5
3EC
100
AcDbEntity
  8
0
100
AcDbBlockEnd
  0
BLOCK
  5
3ED
100
AcDbEntity
  8
0
100
AcDbBlockBegin
  2
SCHUTZHAUBE_00083
 70
    64
 10
0.0
 20
0.0
 30
0.0
  3
SCHUTZHAUBE_00083
  0
INSERT
  5
3EE
100
AcDbEntity
  8
0
100
AcDbBlockReference
  2
SCHUTZHAUBE_00084
 10
0.0
 20
0.0
 30
0.0
  0
INSERT
  5
3EF
100
AcDbEntity
  8
0
100
AcDbBlockReference
  2
SCHUTZHAUBE_00086
 10
0.0
 20
0.0
 30
0.0
  0
ENDBLK
  5
3F0
100
AcDbEntity
  8
0
100
AcDbBlockEnd
  0
BLOCK
  5
3F1
100
AcDbEntity
  8
0
100
AcDbBlockBegin
  2
SCHUTZHAUBE_00084
 70
    64
 10
0.0
 20
0.0
 30
0.0
  3
SCHUTZHAUBE_00084
  0
INSERT
  5
3F2
100
AcDbEntity
  8
0
100
AcDbBlockReference
  2
_SCHUTZHAUBE_00085
 10
-122.21482824
 20
1241.29840064
 30
0.0
  0
ENDBLK
  5
3F3
100
AcDbEntity
  8
0
100
AcDbBlockEnd
  0
BLOCK
  5
3F4
100
AcDbEntity
  8
0
100
AcDbBlockBegin
  2
_SCHUTZHAUBE_00085
 70
    64
 10
-122.21482824
 20
1241.29840064
 30
0.0
  3
_SCHUTZHAUBE_00085
  0
LINE
  5
3F5
100
AcDbEntity
  8
0
100
AcDbLine
 10
-122.21482824
 20
1241.29840064
 30
0.0
 11
-165.71482824
 21
1241.29840064
 31
0.0
  0
LINE
  5
3F6
100
AcDbEntity
  8
0
100
AcDbLine
 10
666.28517176
 20
1241.29840064
 30
0.0
 11
622.78517176
 21
1241.29840064
 31
0.0
  0
LINE
  5
3F7
100
AcDbEntity
  8
0
100
AcDbLine
 10
-168.54325536
 20
1241.29840064
 30
0.0
 11
-168.54325536
 21
1239.29840064
 31
0.0
  0
LINE
  5
3F8
100
AcDbEntity
  8
0
100
AcDbLine
 10
622.78517176
 20
1239.29840064
 30
0.0
 11
669.11359889
 21
1239.29840064
 31
0.0
  0
LINE
  5
3F9
100
AcDbEntity
  8
0
100
AcDbLine
 10
-168.54325536
 20
1239.29840064
 30
0.0
 11
-122.21482824
 21
1239.29840064
 31
0.0
  0
LINE
  5
3FA
100
AcDbEntity
  8
0
100
AcDbLine
 10
669.11359889
 20
1239.29840064
 30
0.0
 11
669.11359889
 21
1241.29840064
 31
0.0
  0
LINE
  5
3FB
100
AcDbEntity
  8
0
100
AcDbLine
 10
-165.71482824
 20
1241.29840064
 30
0.0
 11
-247.71482824
 21
1241.29840064
 31
0.0
  0
LINE
  5
3FC
100
AcDbEntity
  8
0
100
AcDbLine
 10
-47.71482824
 20
1335.29840064
 30
0.0
 11
-47.71482824
 21
1464.29840064
 31
0.0
  0
LINE
  5
3FD
100
AcDbEntity
  8
0
100
AcDbLine
 10
-47.71482824
 20
1241.29840064
 30
0.0
 11
-47.71482824
 21
1265.29840064
 31
0.0
  0
LINE
  5
3FE
100
AcDbEntity
  8
0
100
AcDbLine
 10
548.28517176
 20
1358.29840064
 30
0.0
 11
548.28517176
 21
1241.29840064
 31
0.0
  0
LINE
  5
3FF
100
AcDbEntity
  8
0
100
AcDbLine
 10
548.28517176
 20
1464.29840064
 30
0.0
 11
548.28517176
 21
1428.29840064
 31
0.0
  0
LINE
  5
400
100
AcDbEntity
  8
0
100
AcDbLine
 10
748.28517176
 20
1241.29840064
 30
0.0
 11
666.28517176
 21
1241.29840064
 31
0.0
  0
POLYLINE
  5
401
100
AcDbEntity
  8
0
100
AcDb2dPolyline
 66
     1
  0
VERTEX
  5
402
100
AcDbEntity
  8
0
100
AcDbVertex
100
AcDb2dVertex
 10
-249.71482824
 20
1241.29840064
 30
0.0
  0
VERTEX
  5
403
100
AcDbEntity
  8
0
100
AcDbVertex
100
AcDb2dVertex
 10
-247.71482824
 20
1241.29840064
 30
0.0
  0
VERTEX
  5
404
100
AcDbEntity
  8
0
100
AcDbVertex
100
AcDb2dVertex
 10
-247.71482824
 20
1464.29840064
 30
0.0
  0
VERTEX
  5
405
100
AcDbEntity
  8
0
100
AcDbVertex
100
AcDb2dVertex
 10
-249.71482824
 20
1466.29840064
 30
0.0
  0
SEQEND
  5
406
100
AcDbEntity
  8
0
  0
POLYLINE
  5
407
100
AcDbEntity
  8
0
100
AcDb2dPolyline
 66
     1
  0
VERTEX
  5
408
100
AcDbEntity
  8
0
100
AcDbVertex
100
AcDb2dVertex
 10
-249.71482824
 20
1241.29840064
 30
0.0
  0
VERTEX
  5
409
100
AcDbEntity
  8
0
100
AcDbVertex
100
AcDb2dVertex
 10
-249.71482824
 20
1466.29840064
 30
0.0
  0
VERTEX
  5
40A
100
AcDbEntity
  8
0
100
AcDbVertex
100
AcDb2dVertex
 10
750.28517176
 20
1466.29840064
 30
0.0
  0
SEQEND
  5
40B
100
AcDbEntity
  8
0
  0
LINE
  5
40C
100
AcDbEntity
  8
0
100
AcDbLine
 10
748.28517176
 20
1464.29840064
 30
0.0
 11
750.28517176
 21
1466.29840064
 31
0.0
  0
POLYLINE
  5
40D
100
AcDbEntity
  8
0
100
AcDb2dPolyline
 66
     1
  0
VERTEX
  5
40E
100
AcDbEntity
  8
0
100
AcDbVertex
100
AcDb2dVertex
 10
-247.71482824
 20
1464.29840064
 30
0.0
  0
VERTEX
  5
40F
100
AcDbEntity
  8
0
100
AcDbVertex
100
AcDb2dVertex
 10
748.28517176
 20
1464.29840064
 30
0.0
  0
VERTEX
  5
410
100
AcDbEntity
  8
0
100
AcDbVertex
100
AcDb2dVertex
 10
748.28517176
 20
1241.29840064
 30
0.0
  0
VERTEX
  5
411
100
AcDbEntity
  8
0
100
AcDbVertex
100
AcDb2dVertex
 10
750.28517176
 20
1241.29840064
 30
0.0
  0
SEQEND
  5
412
100
AcDbEntity
  8
0
  0
LINE
  5
413
100
AcDbEntity
  8
0
100
AcDbLine
 10
750.28517176
 20
1466.29840064
 30
0.0
 11
750.28517176
 21
1241.29840064
 31
0.0
  0
ENDBLK
  5
414
100
AcDbEntity
  8
0
100
AcDbBlockEnd
  0
BLOCK
  5
415
100
AcDbEntity
  8
0
100
AcDbBlockBegin
  2
SCHUTZHAUBE_00086
 70
    64
 10
0.0
 20
0.0
 30
0.0
  3
SCHUTZHAUBE_00086
  0
INSERT
  5
416
100
AcDbEntity
  8
0
100
AcDbBlockReference
  2
_SCHUTZHAUBE_00087
 10
622.78517176
 20
871.29840064
 30
0.0
  0
ENDBLK
  5
417
100
AcDbEntity
  8
0
100
AcDbBlockEnd
  0
BLOCK
  5
418
100
AcDbEntity
  8
0
100
AcDbBlockBegin
  2
_SCHUTZHAUBE_00087
 70
    64
 10
622.78517176
 20
871.29840064
 30
0.0
  3
_SCHUTZHAUBE_00087
  0
LINE
  5
419
100
AcDbEntity
  8
0
100
AcDbLine
 10
622.78517176
 20
871.29840064
 30
0.0
 11
666.28517176
 21
871.29840064
 31
0.0
  0
LINE
  5
41A
100
AcDbEntity
  8
0
100
AcDbLine
 10
-165.71482824
 20
871.29840064
 30
0.0
 11
-122.21482824
 21
871.29840064
 31
0.0
  0
LINE
  5
41B
100
AcDbEntity
  8
0
100
AcDbLine
 10
669.11359889
 20
871.29840064
 30
0.0
 11
669.11359889
 21
873.29840064
 31
0.0
  0
LINE
  5
41C
100
AcDbEntity
  8
0
100
AcDbLine
 10
-122.21482824
 20
873.29840064
 30
0.0
 11
-168.54325536
 21
873.29840064
 31
0.0
  0
LINE
  5
41D
100
AcDbEntity
  8
0
100
AcDbLine
 10
669.11359889
 20
873.29840064
 30
0.0
 11
622.78517176
 21
873.29840064
 31
0.0
  0
LINE
  5
41E
100
AcDbEntity
  8
0
100
AcDbLine
 10
-168.54325536
 20
873.29840064
 30
0.0
 11
-168.54325536
 21
871.29840064
 31
0.0
  0
LINE
  5
41F
100
AcDbEntity
  8
0
100
AcDbLine
 10
666.28517176
 20
871.29840064
 30
0.0
 11
748.28517176
 21
871.29840064
 31
0.0
  0
LINE
  5
420
100
AcDbEntity
  8
0
100
AcDbLine
 10
548.28517176
 20
754.29840064
 30
0.0
 11
548.28517176
 21
871.29840064
 31
0.0
  0
LINE
  5
421
100
AcDbEntity
  8
0
100
AcDbLine
 10
548.28517176
 20
648.29840064
 30
0.0
 11
548.28517176
 21
684.29840064
 31
0.0
  0
LINE
  5
422
100
AcDbEntity
  8
0
100
AcDbLine
 10
-47.71482824
 20
777.29840064
 30
0.0
 11
-47.71482824
 21
648.29840064
 31
0.0
  0
LINE
  5
423
100
AcDbEntity
  8
0
100
AcDbLine
 10
-47.71482824
 20
871.29840064
 30
0.0
 11
-47.71482824
 21
847.29840064
 31
0.0
  0
LINE
  5
424
100
AcDbEntity
  8
0
100
AcDbLine
 10
-247.71482824
 20
871.29840064
 30
0.0
 11
-165.71482824
 21
871.29840064
 31
0.0
  0
LINE
  5
425
100
AcDbEntity
  8
0
100
AcDbLine
 10
748.28517176
 20
871.29840064
 30
0.0
 11
750.28517176
 21
871.29840064
 31
0.0
  0
LINE
  5
426
100
AcDbEntity
  8
0
100
AcDbLine
 10
750.28517176
 20
646.29840064
 30
0.0
 11
750.28517176
 21
871.29840064
 31
0.0
  0
LINE
  5
427
100
AcDbEntity
  8
0
100
AcDbLine
 10
748.28517176
 20
648.29840064
 30
0.0
 11
750.28517176
 21
646.29840064
 31
0.0
  0
LINE
  5
428
100
AcDbEntity
  8
0
100
AcDbLine
 10
748.28517176
 20
648.29840064
 30
0.0
 11
748.28517176
 21
871.29840064
 31
0.0
  0
LINE
  5
429
100
AcDbEntity
  8
0
100
AcDbLine
 10
-247.71482824
 20
648.29840064
 30
0.0
 11
748.28517176
 21
648.29840064
 31
0.0
  0
POLYLINE
  5
42A
100
AcDbEntity
  8
0
100
AcDb2dPolyline
 66
     1
  0
VERTEX
  5
42B
100
AcDbEntity
  8
0
100
AcDbVertex
100
AcDb2dVertex
 10
-247.71482824
 20
648.29840064
 30
0.0
  0
VERTEX
  5
42C
100
AcDbEntity
  8
0
100
AcDbVertex
100
AcDb2dVertex
 10
-249.71482824
 20
646.29840064
 30
0.0
  0
VERTEX
  5
42D
100
AcDbEntity
  8
0
100
AcDbVertex
100
AcDb2dVertex
 10
750.28517176
 20
646.29840064
 30
0.0
  0
SEQEND
  5
42E
100
AcDbEntity
  8
0
  0
LINE
  5
42F
100
AcDbEntity
  8
0
100
AcDbLine
 10
-249.71482824
 20
871.29840064
 30
0.0
 11
-249.71482824
 21
646.29840064
 31
0.0
  0
LINE
  5
430
100
AcDbEntity
  8
0
100
AcDbLine
 10
-247.71482824
 20
871.29840064
 30
0.0
 11
-249.71482824
 21
871.29840064
 31
0.0
  0
LINE
  5
431
100
AcDbEntity
  8
0
100
AcDbLine
 10
-247.71482824
 20
871.29840064
 30
0.0
 11
-247.71482824
 21
648.29840064
 31
0.0
  0
ENDBLK
  5
432
100
AcDbEntity
  8
0
100
AcDbBlockEnd
  0
ENDSEC
  0
SECTION
  2
ENTITIES
  0
INSERT
  5
433
100
AcDbEntity
  8
0
100
AcDbBlockReference
  2
ANS3D02_00001
 10
0.0
 20
0.0
 30
0.0
  0
INSERT
  5
434
100
AcDbEntity
  8
0
100
AcDbBlockReference
  2
ANS3D03_00015
 10
0.0
 20
0.0
 30
0.0
  0
INSERT
  5
435
100
AcDbEntity
  8
0
100
AcDbBlockReference
  2
ANS3D04_00025
 10
0.0
 20
0.0
 30
0.0
  0
INSERT
  5
436
100
AcDbEntity
  8
0
100
AcDbBlockReference
  2
ANS3D05_00035
 10
0.0
 20
0.0
 30
0.0
  0
INSERT
  5
437
100
AcDbEntity
  8
0
100
AcDbBlockReference
  2
ANS3D06_00056
 10
0.0
 20
0.0
 30
0.0
  0
ENDSEC
  0
SECTION
  2
OBJECTS
  0
DICTIONARY
  5
C
330
0
100
AcDbDictionary
281
     1
  3
ACAD_GROUP
350
D
  3
ACAD_LAYOUT
350
19
  3
ACAD_MLINESTYLE
350
16
  0
DICTIONARY
  5
115
330
1E
100
AcDbDictionary
280
     1
281
     1
  3
ACAD_INDEX
360
116
  0
DICTIONARY
  5
D
100
AcDbDictionary
281
     1
  0
DICTIONARY
  5
19
100
AcDbDictionary
281
     1
  3
Layout1
350
1D
  3
Model
350
21
  0
DICTIONARY
  5
16
100
AcDbDictionary
281
     1
  3
Standard
350
17
  0
DICTIONARY
  5
116
100
AcDbDictionary
281
     1
  3
*A1
350
117
  0
LAYOUT
  5
1D
100
AcDbPlotSettings
  1

  2
C:\Programme\MDT\plotters\DWF Classic.pc3
  4

  6

 40
0.0
 41
0.0
 42
0.0
 43
0.0
 44
0.0
 45
0.0
 46
0.0
 47
0.0
 48
0.0
 49
0.0
140
0.0
141
0.0
142
1.0
143
1.0
 70
   688
 72
     0
 73
     0
 74
     5
  7

 75
    16
147
1.0
148
0.0
149
0.0
100
AcDbLayout
  1
Layout1
 70
     1
 71
     1
 10
0.0
 20
0.0
 11
12.0
 21
9.0
 12
0.0
 22
0.0
 32
0.0
 14
1.000000000000000E+20
 24
1.000000000000000E+20
 34
1.000000000000000E+20
 15
-1.000000000000000E+20
 25
-1.000000000000000E+20
 35
-1.000000000000000E+20
146
0.0
 13
0.0
 23
0.0
 33
0.0
 16
1.0
 26
0.0
 36
0.0
 17
0.0
 27
1.0
 37
0.0
 76
     0
330
1A
  0
LAYOUT
  5
21
100
AcDbPlotSettings
  1

  2
C:\Programme\MDT\plotters\DWF Classic.pc3
  4

  6

 40
0.0
 41
0.0
 42
0.0
 43
0.0
 44
0.0
 45
0.0
 46
0.0
 47
0.0
 48
0.0
 49
0.0
140
0.0
141
0.0
142
1.0
143
1.0
 70
  1712
 72
     0
 73
     0
 74
     0
  7

 75
     0
147
1.0
148
0.0
149
0.0
100
AcDbLayout
  1
Model
 70
     1
 71
     0
 10
0.0
 20
0.0
 11
12.0
 21
9.0
 12
0.0
 22
0.0
 32
0.0
 14
0.0
 24
0.0
 34
0.0
 15
0.0
 25
0.0
 35
0.0
146
0.0
 13
0.0
 23
0.0
 33
0.0
 16
1.0
 26
0.0
 36
0.0
 17
0.0
 27
1.0
 37
0.0
 76
     0
330
1E
  0
MLINESTYLE
  5
17
100
AcDbMlineStyle
  2
STANDARD
 70
     0
  3

 62
   256
 51
90.0
 52
90.0
 71
     2
 49
0.5
 62
   256
  6
BYLAYER
 49
-0.5
 62
   256
  6
BYLAYER
  0
ACDBPLACEHOLDER
  5
F
  0
XRECORD
  5
129
100
AcDbXrecord
280
     1
 90
        0
  0
XRECORD
  5
12A
100
AcDbXrecord
280
     1
  1
{46C4153B-0B27-49FA-99B6-AF3E057D65BC}
  0
XRECORD
  5
122
100
AcDbXrecord
280
     1
  1

  0
XRECORD
  5
128
100
AcDbXrecord
280
     1
 90
        0
  0
XRECORD
  5
124
100
AcDbXrecord
280
     1
340
19
  0
XRECORD
  5
127
100
AcDbXrecord
280
     1
 90
    10781
  0
XRECORD
  5
125
100
AcDbXrecord
280
     1
340
18
  0
XRECORD
  5
126
100
AcDbXrecord
280
     1
340
E
  0
XRECORD
  5
12C
100
AcDbXrecord
280
     1
 40
0.0
  0
XRECORD
  5
12F
100
AcDbXrecord
280
     1
340
0
  0
XRECORD
  5
135
100
AcDbXrecord
280
     1
 10
0.0
 20
0.0
 30
0.0
  0
XRECORD
  5
131
100
AcDbXrecord
280
     1
 10
0.0
 20
0.0
 30
0.0
  0
XRECORD
  5
134
100
AcDbXrecord
280
     1
 10
0.0
 20
0.0
 30
0.0
  0
XRECORD
  5
132
100
AcDbXrecord
280
     1
 10
0.0
 20
0.0
 30
0.0
  0
XRECORD
  5
133
100
AcDbXrecord
280
     1
 10
0.0
 20
0.0
 30
0.0
  0
XRECORD
  5
130
100
AcDbXrecord
280
     1
 10
0.0
 20
0.0
 30
0.0
  0
XRECORD
  5
12D
100
AcDbXrecord
280
     1
340
0
  0
XRECORD
  5
12E
100
AcDbXrecord
280
     1
 70
     0
  0
XRECORD
  5
123
100
AcDbXrecord
280
     1
  1

  0
XRECORD
  5
120
100
AcDbXrecord
280
     1
 90
        1
  0
XRECORD
  5
121
100
AcDbXrecord
280
     1
 90
       70
  0
XRECORD
  5
138
100
AcDbXrecord
280
     1
340
0
  0
XRECORD
  5
13E
100
AcDbXrecord
280
     1
 10
0.0
 20
0.0
 30
0.0
  0
XRECORD
  5
13A
100
AcDbXrecord
280
     1
 10
0.0
 20
0.0
 30
0.0
  0
XRECORD
  5
13D
100
AcDbXrecord
280
     1
 10
0.0
 20
0.0
 30
0.0
  0
XRECORD
  5
13B
100
AcDbXrecord
280
     1
 10
0.0
 20
0.0
 30
0.0
  0
XRECORD
  5
13C
100
AcDbXrecord
280
     1
 10
0.0
 20
0.0
 30
0.0
  0
XRECORD
  5
139
100
AcDbXrecord
280
     1
 10
0.0
 20
0.0
 30
0.0
  0
XRECORD
  5
136
100
AcDbXrecord
280
     1
340
0
  0
XRECORD
  5
137
100
AcDbXrecord
280
     1
 70
     0
  0
XRECORD
  5
12B
100
AcDbXrecord
280
     1
  1
{09700D79-BD6A-4B2C-8A65-8ED4ED61BA28}
  0
DICTIONARYVAR
  5
11D
100
DictionaryVariables
280
     0
  1
1
  0
ENDSEC
  0
EOF
