999
NT  : - 1800
  0
SECTION
  2
HEADER
  9
$ACADVER
  1
AC1015
  9
$DWGCODEPAGE
  3
ANSI_1252
  9
$INSBASE
 10
0.0
 20
0.0
 30
0.0
  9
$EXTMIN
 10
-1332.91407438
 20
-1105.75402604
 30
0.0
  9
$EXTMAX
 10
2937.69659744
 20
1148.09412016
 30
0.0
  9
$LIMMIN
 10
-1332.91407438
 20
-1105.75402604
  9
$LIMMAX
 10
2937.69659744
 20
1148.09412016
  9
$FILLMODE
 70
     1
  9
$QTEXTMODE
 70
     0
  9
$LTSCALE
 40
1.0
  9
$ATTMODE
 70
     1
  9
$TEXTSTYLE
  7
Standard
  9
$LUNITS
 70
     2
  9
$LUPREC
 70
     4
  9
$AUNITS
 70
     0
  9
$AUPREC
 70
     0
  9
$ANGBASE
 50
0.0
  9
$ANGDIR
 70
     0
  9
$HANDSEED
  5
426
  9
$TILEMODE
 70
     1
  9
$VISRETAIN
 70
     0
  9
$MEASUREMENT
 70
     1
  0
ENDSEC
  0
SECTION
  2
CLASSES
  0
ENDSEC
  0
SECTION
  2
TABLES
  0
TABLE
  2
VPORT
  5
1
100
AcDbSymbolTable
 70
     1
  0
VPORT
  5
2
100
AcDbSymbolTableRecord
100
AcDbViewportTableRecord
  2
*Active
 70
     0
 10
0.0
 20
0.0
 11
1.0
 21
1.0
 12
802.39126153
 22
21.17004706
 13
0.0
 23
0.0
 14
1.0
 24
1.0
 15
0.0
 25
0.0
 16
0.0
 26
0.0
 36
1.0
 17
0.0
 27
0.0
 37
0.0
 40
2253.848146198
 41
1.894808521
 42
50.0
 43
0.0
 44
0.0
 50
0.0
 51
0.0
 71
     0
 72
   100
 73
     1
 74
     1
 75
     0
 76
     0
 77
     0
 78
     0
  0
ENDTAB
  0
TABLE
  2
LTYPE
  5
3
100
AcDbSymbolTable
 70
    21
  0
LTYPE
  5
4
100
AcDbSymbolTableRecord
100
AcDbLinetypeTableRecord
  2
ByBlock
 70
    64
  3

 72
    65
 73
     0
 40
0.0
  0
LTYPE
  5
5
100
AcDbSymbolTableRecord
100
AcDbLinetypeTableRecord
  2
ByLayer
 70
    64
  3

 72
    65
 73
     0
 40
0.0
  0
LTYPE
  5
6
100
AcDbSymbolTableRecord
100
AcDbLinetypeTableRecord
  2
CONTINUOUS
 70
    64
  3
Solid line
 72
    65
 73
     0
 40
0.0
  0
LTYPE
  5
7
100
AcDbSymbolTableRecord
100
AcDbLinetypeTableRecord
  2
DOT
 70
    64
  3
..............
 72
    65
 73
     2
 40
2.000
 49
0.500
 74
     0
 49
-1.500
 74
     0
  0
LTYPE
  5
8
100
AcDbSymbolTableRecord
100
AcDbLinetypeTableRecord
  2
HIDDEN
 70
    64
  3
-- -- -- -- --
 72
    65
 73
     2
 40
7.000
 49
4.000
 74
     0
 49
-3.000
 74
     0
  0
LTYPE
  5
9
100
AcDbSymbolTableRecord
100
AcDbLinetypeTableRecord
  2
DASHDOT
 70
    64
  3
--.--.--.--.--
 72
    65
 73
     4
 40
8.500
 49
4.000
 74
     0
 49
-2.000
 74
     0
 49
0.500
 74
     0
 49
-2.000
 74
     0
  0
LTYPE
  5
A
100
AcDbSymbolTableRecord
100
AcDbLinetypeTableRecord
  2
STRICHPUNKT2
 70
    64
  3
--.--.--.--.--
 72
    65
 73
     4
 40
18.500
 49
10.000
 74
     0
 49
-4.000
 74
     0
 49
0.500
 74
     0
 49
-4.000
 74
     0
  0
LTYPE
  5
B
100
AcDbSymbolTableRecord
100
AcDbLinetypeTableRecord
  2
STRICHPUNKT3
 70
    64
  3
--.--.--.--.--
 72
    65
 73
     4
 40
35.500
 49
25.000
 74
     0
 49
-5.000
 74
     0
 49
0.500
 74
     0
 49
-5.000
 74
     0
  0
LTYPE
  5
13F
100
AcDbSymbolTableRecord
100
AcDbLinetypeTableRecord
  2
PHANTOM
 70
    64
  3
--..--..--..--
 72
    65
 73
     6
 40
23.000
 49
10.000
 74
     0
 49
-4.000
 74
     0
 49
0.500
 74
     0
 49
-4.000
 74
     0
 49
0.500
 74
     0
 49
-4.000
 74
     0
  0
LTYPE
  5
140
100
AcDbSymbolTableRecord
100
AcDbLinetypeTableRecord
  2
PHANTOM2
 70
    64
  3
--..--..--..--
 72
    65
 73
     6
 40
33.000
 49
20.000
 74
     0
 49
-4.000
 74
     0
 49
0.500
 74
     0
 49
-4.000
 74
     0
 49
0.500
 74
     0
 49
-4.000
 74
     0
  0
LTYPE
  5
141
100
AcDbSymbolTableRecord
100
AcDbLinetypeTableRecord
  2
PHANTOM3
 70
    64
  3
--..--..--..--
 72
    65
 73
     6
 40
50.000
 49
37.000
 74
     0
 49
-4.000
 74
     0
 49
0.500
 74
     0
 49
-4.000
 74
     0
 49
0.500
 74
     0
 49
-4.000
 74
     0
  0
LTYPE
  5
142
100
AcDbSymbolTableRecord
100
AcDbLinetypeTableRecord
  2
STR3PKT
 70
    64
  3
--...--...--...
 72
    65
 73
     8
 40
31.500
 49
20.000
 74
     0
 49
-2.500
 74
     0
 49
0.500
 74
     0
 49
-2.500
 74
     0
 49
0.500
 74
     0
 49
-2.500
 74
     0
 49
0.500
 74
     0
 49
-2.500
 74
     0
  0
LTYPE
  5
143
100
AcDbSymbolTableRecord
100
AcDbLinetypeTableRecord
  2
2STRPKT
 70
    64
  3
--.--.--.--.--
 72
    65
 73
     6
 40
28.000
 49
10.000
 74
     0
 49
-2.500
 74
     0
 49
10.000
 74
     0
 49
-2.500
 74
     0
 49
0.500
 74
     0
 49
-2.500
 74
     0
  0
LTYPE
  5
144
100
AcDbSymbolTableRecord
100
AcDbLinetypeTableRecord
  2
GESTRICHELT2
 70
    64
  3
-- -- -- -- --
 72
    65
 73
     2
 40
25.000
 49
10.000
 74
     0
 49
-15.000
 74
     0
  0
LTYPE
  5
145
100
AcDbSymbolTableRecord
100
AcDbLinetypeTableRecord
  2
2STR2PKT
 70
    64
  3
--..--..--..--
 72
    65
 73
     8
 40
31.000
 49
10.000
 74
     0
 49
-2.500
 74
     0
 49
10.000
 74
     0
 49
-2.500
 74
     0
 49
0.500
 74
     0
 49
-2.500
 74
     0
 49
0.500
 74
     0
 49
-2.500
 74
     0
  0
LTYPE
  5
146
100
AcDbSymbolTableRecord
100
AcDbLinetypeTableRecord
  2
STR3PKT2
 70
    64
  3
--...--...--...
 72
    65
 73
     8
 40
21.000
 49
10.000
 74
     0
 49
-2.500
 74
     0
 49
0.500
 74
     0
 49
-2.500
 74
     0
 49
0.500
 74
     0
 49
-2.500
 74
     0
 49
0.500
 74
     0
 49
-2.000
 74
     0
  0
LTYPE
  5
147
100
AcDbSymbolTableRecord
100
AcDbLinetypeTableRecord
  2
2STR3PKT
 70
    64
  3
--...--...--...
 72
    65
 73
    10
 40
34.000
 49
10.000
 74
     0
 49
-2.500
 74
     0
 49
10.000
 74
     0
 49
-2.500
 74
     0
 49
0.500
 74
     0
 49
-2.500
 74
     0
 49
0.500
 74
     0
 49
-2.500
 74
     0
 49
0.500
 74
     0
 49
-2.500
 74
     0
  0
LTYPE
  5
148
100
AcDbSymbolTableRecord
100
AcDbLinetypeTableRecord
  2
STRKSTR
 70
    64
  3
-- - -- - -- -
 72
    65
 73
     4
 40
30.000
 49
20.000
 74
     0
 49
-2.500
 74
     0
 49
5.000
 74
     0
 49
-2.500
 74
     0
  0
LTYPE
  5
149
100
AcDbSymbolTableRecord
100
AcDbLinetypeTableRecord
  2
STRKSTR2
 70
    64
  3
-- - -- - -- -
 72
    65
 73
     6
 40
37.500
 49
20.000
 74
     0
 49
-2.500
 74
     0
 49
5.000
 74
     0
 49
-2.500
 74
     0
 49
5.000
 74
     0
 49
-2.500
 74
     0
  0
LTYPE
  5
14A
100
AcDbSymbolTableRecord
100
AcDbLinetypeTableRecord
  2
STRKSTR3
 70
    64
  3
-- - -- - -- -
 72
    65
 73
     8
 40
45.000
 49
20.000
 74
     0
 49
-2.500
 74
     0
 49
5.000
 74
     0
 49
-2.500
 74
     0
 49
5.000
 74
     0
 49
-2.500
 74
     0
 49
5.000
 74
     0
 49
-2.500
 74
     0
  0
LTYPE
  5
14B
100
AcDbSymbolTableRecord
100
AcDbLinetypeTableRecord
  2
PUNKT2
 70
    64
  3
..............
 72
    65
 73
     2
 40
3.500
 49
0.500
 74
     0
 49
-3.000
 74
     0
  0
ENDTAB
  0
TABLE
  2
LAYER
  5
14C
100
AcDbSymbolTable
 70
    14
  0
LAYER
  5
14D
100
AcDbSymbolTableRecord
100
AcDbLayerTableRecord
  2
0
 70
    64
 62
     7
  6
CONTINUOUS
370
    -3
390
F
  0
LAYER
  5
14E
100
AcDbSymbolTableRecord
100
AcDbLayerTableRecord
  2
LE_GREEN
 70
    64
 62
     3
  6
CONTINUOUS
370
    -3
390
F
  0
LAYER
  5
14F
100
AcDbSymbolTableRecord
100
AcDbLayerTableRecord
  2
LE_RED
 70
    64
 62
     1
  6
CONTINUOUS
370
    -3
390
F
  0
LAYER
  5
150
100
AcDbSymbolTableRecord
100
AcDbLayerTableRecord
  2
LE_ALL
 70
    64
 62
     7
  6
CONTINUOUS
370
    50
390
F
  0
LAYER
  5
151
100
AcDbSymbolTableRecord
100
AcDbLayerTableRecord
  2
LE_HIDDEN1
 70
    64
 62
     3
  6
HIDDEN
370
    -3
390
F
  0
LAYER
  5
152
100
AcDbSymbolTableRecord
100
AcDbLayerTableRecord
  2
LE_HIDDEN
 70
    64
 62
     7
  6
CONTINUOUS
370
    -3
390
F
  0
LAYER
  5
153
100
AcDbSymbolTableRecord
100
AcDbLayerTableRecord
  2
LE_MIDDLE
 70
    64
 62
     7
  6
CONTINUOUS
370
    -3
390
F
  0
LAYER
  5
154
100
AcDbSymbolTableRecord
100
AcDbLayerTableRecord
  2
TXT_YELLOW
 70
    64
 62
     2
  6
CONTINUOUS
370
    -3
390
F
  0
LAYER
  5
155
100
AcDbSymbolTableRecord
100
AcDbLayerTableRecord
  2
TXT_DIM49
 70
    64
 62
     2
  6
CONTINUOUS
370
    -3
390
F
  0
LAYER
  5
156
100
AcDbSymbolTableRecord
100
AcDbLayerTableRecord
  2
TXT_ALL
 70
    64
 62
     7
  6
CONTINUOUS
370
    -3
390
F
  0
LAYER
  5
157
100
AcDbSymbolTableRecord
100
AcDbLayerTableRecord
  2
DIM49
 70
    64
 62
     4
  6
CONTINUOUS
370
    -3
390
F
  0
LAYER
  5
158
100
AcDbSymbolTableRecord
100
AcDbLayerTableRecord
  2
HATCH
 70
    64
 62
     3
  6
CONTINUOUS
370
    -3
390
F
  0
LAYER
  5
159
100
AcDbSymbolTableRecord
100
AcDbLayerTableRecord
  2
1
 70
    64
 62
     7
  6
CONTINUOUS
370
    -3
390
F
  0
LAYER
  5
15A
100
AcDbSymbolTableRecord
100
AcDbLayerTableRecord
  2
49
 70
    64
 62
     7
  6
CONTINUOUS
370
    -3
390
F
  0
ENDTAB
  0
TABLE
  2
STYLE
  5
15B
100
AcDbSymbolTable
 70
     2
  0
STYLE
  5
15C
100
AcDbSymbolTableRecord
100
AcDbTextStyleTableRecord
  2
MONOTXT
 70
     0
 40
0.0
 41
1.000
 50
0.0
 71
     0
 42
1.000
  3
monotxt.shx
  4

  0
STYLE
  5
15D
100
AcDbSymbolTableRecord
100
AcDbTextStyleTableRecord
  2
STANDARD
 70
     0
 40
0.0
 41
1.000
 50
0.0
 71
     0
 42
1.000
  3
txt
  4

  0
ENDTAB
  0
TABLE
  2
VIEW
  5
15E
100
AcDbSymbolTable
 70
     0
  0
ENDTAB
  0
TABLE
  2
UCS
  5
15F
100
AcDbSymbolTable
 70
     0
  0
ENDTAB
  0
TABLE
  2
APPID
  5
160
100
AcDbSymbolTable
 70
     1
  0
APPID
  5
161
100
AcDbSymbolTableRecord
100
AcDbRegAppTableRecord
  2
ACAD
 70
     0
  0
ENDTAB
  0
TABLE
  2
DIMSTYLE
  5
162
100
AcDbSymbolTable
100
AcDbDimStyleTable
 70
     0
  0
ENDTAB
  0
TABLE
  2
BLOCK_RECORD
  5
163
100
AcDbSymbolTable
 70
    83
  0
BLOCK_RECORD
  5
1E
100
AcDbSymbolTableRecord
100
AcDbBlockTableRecord
  2
*Model_Space
  0
BLOCK_RECORD
  5
1A
100
AcDbSymbolTableRecord
100
AcDbBlockTableRecord
  2
*Paper_Space
  0
BLOCK_RECORD
  5
164
100
AcDbSymbolTableRecord
100
AcDbBlockTableRecord
  2
ANS3D02_00001
  0
BLOCK_RECORD
  5
165
100
AcDbSymbolTableRecord
100
AcDbBlockTableRecord
  2
FIG3D02_00002
  0
BLOCK_RECORD
  5
166
100
AcDbSymbolTableRecord
100
AcDbBlockTableRecord
  2
JR20_00003
  0
BLOCK_RECORD
  5
167
100
AcDbSymbolTableRecord
100
AcDbBlockTableRecord
  2
GEHÄUSE_00004
  0
BLOCK_RECORD
  5
168
100
AcDbSymbolTableRecord
100
AcDbBlockTableRecord
  2
_GEHÄUSE_00005
  0
BLOCK_RECORD
  5
169
100
AcDbSymbolTableRecord
100
AcDbBlockTableRecord
  2
SCHUTZHAUBE_00006
  0
BLOCK_RECORD
  5
16A
100
AcDbSymbolTableRecord
100
AcDbBlockTableRecord
  2
SCHUTZHAUBE_00007
  0
BLOCK_RECORD
  5
16B
100
AcDbSymbolTableRecord
100
AcDbBlockTableRecord
  2
_SCHUTZHAUBE_00008
  0
BLOCK_RECORD
  5
16C
100
AcDbSymbolTableRecord
100
AcDbBlockTableRecord
  2
ANSCHLUßFLANSCH_00009
  0
BLOCK_RECORD
  5
16D
100
AcDbSymbolTableRecord
100
AcDbBlockTableRecord
  2
_ANSCHLUßFLANSCH_00010
  0
BLOCK_RECORD
  5
16E
100
AcDbSymbolTableRecord
100
AcDbBlockTableRecord
  2
ANS3D03_00011
  0
BLOCK_RECORD
  5
16F
100
AcDbSymbolTableRecord
100
AcDbBlockTableRecord
  2
FIG3D03_00012
  0
BLOCK_RECORD
  5
170
100
AcDbSymbolTableRecord
100
AcDbBlockTableRecord
  2
JR20_00013
  0
BLOCK_RECORD
  5
171
100
AcDbSymbolTableRecord
100
AcDbBlockTableRecord
  2
GEHÄUSE_00014
  0
BLOCK_RECORD
  5
172
100
AcDbSymbolTableRecord
100
AcDbBlockTableRecord
  2
_GEHÄUSE_00015
  0
BLOCK_RECORD
  5
173
100
AcDbSymbolTableRecord
100
AcDbBlockTableRecord
  2
SCHUTZHAUBE_00016
  0
BLOCK_RECORD
  5
174
100
AcDbSymbolTableRecord
100
AcDbBlockTableRecord
  2
SCHUTZHAUBE_00017
  0
BLOCK_RECORD
  5
175
100
AcDbSymbolTableRecord
100
AcDbBlockTableRecord
  2
_SCHUTZHAUBE_00018
  0
BLOCK_RECORD
  5
176
100
AcDbSymbolTableRecord
100
AcDbBlockTableRecord
  2
SCHUTZHAUBE_00019
  0
BLOCK_RECORD
  5
177
100
AcDbSymbolTableRecord
100
AcDbBlockTableRecord
  2
_SCHUTZHAUBE_00020
  0
BLOCK_RECORD
  5
178
100
AcDbSymbolTableRecord
100
AcDbBlockTableRecord
  2
ANS3D04_00021
  0
BLOCK_RECORD
  5
179
100
AcDbSymbolTableRecord
100
AcDbBlockTableRecord
  2
FIG3D04_00022
  0
BLOCK_RECORD
  5
17A
100
AcDbSymbolTableRecord
100
AcDbBlockTableRecord
  2
JR20_00023
  0
BLOCK_RECORD
  5
17B
100
AcDbSymbolTableRecord
100
AcDbBlockTableRecord
  2
GEHÄUSE_00024
  0
BLOCK_RECORD
  5
17C
100
AcDbSymbolTableRecord
100
AcDbBlockTableRecord
  2
_GEHÄUSE_00025
  0
BLOCK_RECORD
  5
17D
100
AcDbSymbolTableRecord
100
AcDbBlockTableRecord
  2
SCHUTZHAUBE_00026
  0
BLOCK_RECORD
  5
17E
100
AcDbSymbolTableRecord
100
AcDbBlockTableRecord
  2
SCHUTZHAUBE_00027
  0
BLOCK_RECORD
  5
17F
100
AcDbSymbolTableRecord
100
AcDbBlockTableRecord
  2
_SCHUTZHAUBE_00028
  0
BLOCK_RECORD
  5
180
100
AcDbSymbolTableRecord
100
AcDbBlockTableRecord
  2
SCHUTZHAUBE_00029
  0
BLOCK_RECORD
  5
181
100
AcDbSymbolTableRecord
100
AcDbBlockTableRecord
  2
_SCHUTZHAUBE_00030
  0
BLOCK_RECORD
  5
182
100
AcDbSymbolTableRecord
100
AcDbBlockTableRecord
  2
ANS3D05_00031
  0
BLOCK_RECORD
  5
183
100
AcDbSymbolTableRecord
100
AcDbBlockTableRecord
  2
FIG3D05_00032
  0
BLOCK_RECORD
  5
184
100
AcDbSymbolTableRecord
100
AcDbBlockTableRecord
  2
JR20_00033
  0
BLOCK_RECORD
  5
185
100
AcDbSymbolTableRecord
100
AcDbBlockTableRecord
  2
GEHÄUSE_00034
  0
BLOCK_RECORD
  5
186
100
AcDbSymbolTableRecord
100
AcDbBlockTableRecord
  2
_GEHÄUSE_00035
  0
BLOCK_RECORD
  5
187
100
AcDbSymbolTableRecord
100
AcDbBlockTableRecord
  2
WELLE_00036
  0
BLOCK_RECORD
  5
188
100
AcDbSymbolTableRecord
100
AcDbBlockTableRecord
  2
WELLE_00037
  0
BLOCK_RECORD
  5
189
100
AcDbSymbolTableRecord
100
AcDbBlockTableRecord
  2
_WELLE_00038
  0
BLOCK_RECORD
  5
18A
100
AcDbSymbolTableRecord
100
AcDbBlockTableRecord
  2
FLIEHGEWICHT_00039
  0
BLOCK_RECORD
  5
18B
100
AcDbSymbolTableRecord
100
AcDbBlockTableRecord
  2
FLIEHGEWICHT_00040
  0
BLOCK_RECORD
  5
18C
100
AcDbSymbolTableRecord
100
AcDbBlockTableRecord
  2
FLIEHGEWICHT_00041
  0
BLOCK_RECORD
  5
18D
100
AcDbSymbolTableRecord
100
AcDbBlockTableRecord
  2
_FLIEHGEWICHT_00042
  0
BLOCK_RECORD
  5
18E
100
AcDbSymbolTableRecord
100
AcDbBlockTableRecord
  2
SCHUTZHAUBE_00043
  0
BLOCK_RECORD
  5
18F
100
AcDbSymbolTableRecord
100
AcDbBlockTableRecord
  2
SCHUTZHAUBE_00044
  0
BLOCK_RECORD
  5
190
100
AcDbSymbolTableRecord
100
AcDbBlockTableRecord
  2
_SCHUTZHAUBE_00045
  0
BLOCK_RECORD
  5
191
100
AcDbSymbolTableRecord
100
AcDbBlockTableRecord
  2
SCHUTZHAUBE_00046
  0
BLOCK_RECORD
  5
192
100
AcDbSymbolTableRecord
100
AcDbBlockTableRecord
  2
_SCHUTZHAUBE_00047
  0
BLOCK_RECORD
  5
193
100
AcDbSymbolTableRecord
100
AcDbBlockTableRecord
  2
ANSCHLUßFLANSCH_00048
  0
BLOCK_RECORD
  5
194
100
AcDbSymbolTableRecord
100
AcDbBlockTableRecord
  2
_ANSCHLUßFLANSCH_00049
  0
BLOCK_RECORD
  5
195
100
AcDbSymbolTableRecord
100
AcDbBlockTableRecord
  2
ANS3D06_00050
  0
BLOCK_RECORD
  5
196
100
AcDbSymbolTableRecord
100
AcDbBlockTableRecord
  2
FIG3D06_00051
  0
BLOCK_RECORD
  5
197
100
AcDbSymbolTableRecord
100
AcDbBlockTableRecord
  2
JR20_00052
  0
BLOCK_RECORD
  5
198
100
AcDbSymbolTableRecord
100
AcDbBlockTableRecord
  2
GEHÄUSE_00053
  0
BLOCK_RECORD
  5
199
100
AcDbSymbolTableRecord
100
AcDbBlockTableRecord
  2
_GEHÄUSE_00054
  0
BLOCK_RECORD
  5
19A
100
AcDbSymbolTableRecord
100
AcDbBlockTableRecord
  2
WELLE_00055
  0
BLOCK_RECORD
  5
19B
100
AcDbSymbolTableRecord
100
AcDbBlockTableRecord
  2
WELLE_00056
  0
BLOCK_RECORD
  5
19C
100
AcDbSymbolTableRecord
100
AcDbBlockTableRecord
  2
_WELLE_00057
  0
BLOCK_RECORD
  5
19D
100
AcDbSymbolTableRecord
100
AcDbBlockTableRecord
  2
WELLE_00058
  0
BLOCK_RECORD
  5
19E
100
AcDbSymbolTableRecord
100
AcDbBlockTableRecord
  2
_WELLE_00059
  0
BLOCK_RECORD
  5
19F
100
AcDbSymbolTableRecord
100
AcDbBlockTableRecord
  2
WELLE_00060
  0
BLOCK_RECORD
  5
1A0
100
AcDbSymbolTableRecord
100
AcDbBlockTableRecord
  2
_WELLE_00061
  0
BLOCK_RECORD
  5
1A1
100
AcDbSymbolTableRecord
100
AcDbBlockTableRecord
  2
WELLE_00062
  0
BLOCK_RECORD
  5
1A2
100
AcDbSymbolTableRecord
100
AcDbBlockTableRecord
  2
_WELLE_00063
  0
BLOCK_RECORD
  5
1A3
100
AcDbSymbolTableRecord
100
AcDbBlockTableRecord
  2
FLIEHGEWICHT_00064
  0
BLOCK_RECORD
  5
1A4
100
AcDbSymbolTableRecord
100
AcDbBlockTableRecord
  2
FLIEHGEWICHT_00065
  0
BLOCK_RECORD
  5
1A5
100
AcDbSymbolTableRecord
100
AcDbBlockTableRecord
  2
FLIEHGEWICHT_00066
  0
BLOCK_RECORD
  5
1A6
100
AcDbSymbolTableRecord
100
AcDbBlockTableRecord
  2
_FLIEHGEWICHT_00067
  0
BLOCK_RECORD
  5
1A7
100
AcDbSymbolTableRecord
100
AcDbBlockTableRecord
  2
FLIEHGEWICHT_00068
  0
BLOCK_RECORD
  5
1A8
100
AcDbSymbolTableRecord
100
AcDbBlockTableRecord
  2
_FLIEHGEWICHT_00069
  0
BLOCK_RECORD
  5
1A9
100
AcDbSymbolTableRecord
100
AcDbBlockTableRecord
  2
FLIEHGEWICHT_00070
  0
BLOCK_RECORD
  5
1AA
100
AcDbSymbolTableRecord
100
AcDbBlockTableRecord
  2
FLIEHGEWICHT_00071
  0
BLOCK_RECORD
  5
1AB
100
AcDbSymbolTableRecord
100
AcDbBlockTableRecord
  2
_FLIEHGEWICHT_00072
  0
BLOCK_RECORD
  5
1AC
100
AcDbSymbolTableRecord
100
AcDbBlockTableRecord
  2
FLIEHGEWICHT_00073
  0
BLOCK_RECORD
  5
1AD
100
AcDbSymbolTableRecord
100
AcDbBlockTableRecord
  2
_FLIEHGEWICHT_00074
  0
BLOCK_RECORD
  5
1AE
100
AcDbSymbolTableRecord
100
AcDbBlockTableRecord
  2
SCHUTZHAUBE_00075
  0
BLOCK_RECORD
  5
1AF
100
AcDbSymbolTableRecord
100
AcDbBlockTableRecord
  2
SCHUTZHAUBE_00076
  0
BLOCK_RECORD
  5
1B0
100
AcDbSymbolTableRecord
100
AcDbBlockTableRecord
  2
_SCHUTZHAUBE_00077
  0
BLOCK_RECORD
  5
1B1
100
AcDbSymbolTableRecord
100
AcDbBlockTableRecord
  2
SCHUTZHAUBE_00078
  0
BLOCK_RECORD
  5
1B2
100
AcDbSymbolTableRecord
100
AcDbBlockTableRecord
  2
_SCHUTZHAUBE_00079
  0
BLOCK_RECORD
  5
1B3
100
AcDbSymbolTableRecord
100
AcDbBlockTableRecord
  2
ANSCHLUßFLANSCH_00080
  0
BLOCK_RECORD
  5
1B4
100
AcDbSymbolTableRecord
100
AcDbBlockTableRecord
  2
_ANSCHLUßFLANSCH_00081
  0
ENDTAB
  0
ENDSEC
  0
SECTION
  2
BLOCKS
  0
BLOCK
  5
1B5
100
AcDbEntity
  8
0
100
AcDbBlockBegin
  2
*Model_Space
 70
     0
 10
0.0
 20
0.0
 30
0.0
  3
*Model_Space
  1

  0
ENDBLK
  5
1B6
100
AcDbEntity
  8
0
100
AcDbBlockEnd
  0
BLOCK
  5
1B7
100
AcDbEntity
100
AcDbBlockBegin
 67
     1
  8
0
  2
*Paper_Space
 70
     0
 10
0.0
 20
0.0
 30
0.0
  3
*Paper_Space
  1

  0
ENDBLK
  5
1B8
100
AcDbEntity
100
AcDbBlockEnd
 67
     1
  8
0
  0
BLOCK
  5
1B9
100
AcDbEntity
  8
0
100
AcDbBlockBegin
  2
ANS3D02_00001
 70
    64
 10
0.0
 20
0.0
 30
0.0
  3
ANS3D02_00001
  0
INSERT
  5
1BA
100
AcDbEntity
  8
0
100
AcDbBlockReference
  2
FIG3D02_00002
 10
0.0
 20
0.0
 30
0.0
  0
ENDBLK
  5
1BB
100
AcDbEntity
  8
0
100
AcDbBlockEnd
  0
BLOCK
  5
1BC
100
AcDbEntity
  8
0
100
AcDbBlockBegin
  2
FIG3D02_00002
 70
    64
 10
0.0
 20
0.0
 30
0.0
  3
FIG3D02_00002
  0
INSERT
  5
1BD
100
AcDbEntity
  8
0
100
AcDbBlockReference
  2
JR20_00003
 10
0.0
 20
0.0
 30
0.0
  0
ENDBLK
  5
1BE
100
AcDbEntity
  8
0
100
AcDbBlockEnd
  0
BLOCK
  5
1BF
100
AcDbEntity
  8
0
100
AcDbBlockBegin
  2
JR20_00003
 70
    64
 10
0.0
 20
0.0
 30
0.0
  3
JR20_00003
  0
INSERT
  5
1C0
100
AcDbEntity
  8
0
100
AcDbBlockReference
  2
GEHÄUSE_00004
 10
0.0
 20
0.0
 30
0.0
  0
INSERT
  5
1C1
100
AcDbEntity
  8
0
100
AcDbBlockReference
  2
SCHUTZHAUBE_00006
 10
0.0
 20
0.0
 30
0.0
  0
INSERT
  5
1C2
100
AcDbEntity
  8
0
100
AcDbBlockReference
  2
ANSCHLUßFLANSCH_00009
 10
0.0
 20
0.0
 30
0.0
  0
ENDBLK
  5
1C3
100
AcDbEntity
  8
0
100
AcDbBlockEnd
  0
BLOCK
  5
1C4
100
AcDbEntity
  8
0
100
AcDbBlockBegin
  2
GEHÄUSE_00004
 70
    64
 10
0.0
 20
0.0
 30
0.0
  3
GEHÄUSE_00004
  0
INSERT
  5
1C5
100
AcDbEntity
  8
0
100
AcDbBlockReference
  2
_GEHÄUSE_00005
 10
490.74588175
 20
-197.22989533
 30
0.0
  0
ENDBLK
  5
1C6
100
AcDbEntity
  8
0
100
AcDbBlockEnd
  0
BLOCK
  5
1C7
100
AcDbEntity
  8
0
100
AcDbBlockBegin
  2
_GEHÄUSE_00005
 70
    64
 10
490.74588175
 20
-197.22989533
 30
0.0
  3
_GEHÄUSE_00005
  0
LINE
  5
1C8
100
AcDbEntity
  8
0
100
AcDbLine
 10
490.74588175
 20
-197.22989533
 30
0.0
 11
490.74588175
 21
-187.22989533
 31
0.0
  0
LINE
  5
1C9
100
AcDbEntity
  8
0
100
AcDbLine
 10
-94.25411825
 20
-197.22989533
 30
0.0
 11
490.74588175
 21
-197.22989533
 31
0.0
  0
LINE
  5
1CA
100
AcDbEntity
  8
0
100
AcDbLine
 10
-94.25411825
 20
-197.22989533
 30
0.0
 11
-94.25411825
 21
-187.22989533
 31
0.0
  0
ENDBLK
  5
1CB
100
AcDbEntity
  8
0
100
AcDbBlockEnd
  0
BLOCK
  5
1CC
100
AcDbEntity
  8
0
100
AcDbBlockBegin
  2
SCHUTZHAUBE_00006
 70
    64
 10
0.0
 20
0.0
 30
0.0
  3
SCHUTZHAUBE_00006
  0
INSERT
  5
1CD
100
AcDbEntity
  8
0
100
AcDbBlockReference
  2
SCHUTZHAUBE_00007
 10
0.0
 20
0.0
 30
0.0
  0
ENDBLK
  5
1CE
100
AcDbEntity
  8
0
100
AcDbBlockEnd
  0
BLOCK
  5
1CF
100
AcDbEntity
  8
0
100
AcDbBlockBegin
  2
SCHUTZHAUBE_00007
 70
    64
 10
0.0
 20
0.0
 30
0.0
  3
SCHUTZHAUBE_00007
  0
INSERT
  5
1D0
100
AcDbEntity
  8
0
100
AcDbBlockReference
  2
_SCHUTZHAUBE_00008
 10
53.24588175
 20
132.77010467
 30
0.0
  0
ENDBLK
  5
1D1
100
AcDbEntity
  8
0
100
AcDbBlockEnd
  0
BLOCK
  5
1D2
100
AcDbEntity
  8
0
100
AcDbBlockBegin
  2
_SCHUTZHAUBE_00008
 70
    64
 10
53.24588175
 20
132.77010467
 30
0.0
  3
_SCHUTZHAUBE_00008
  0
CIRCLE
  5
1D3
100
AcDbEntity
  8
0
100
AcDbCircle
 10
53.24588175
 20
62.77010467
 30
0.0
 40
70.00000000
  0
LINE
  5
1D4
100
AcDbEntity
  8
0
100
AcDbLine
 10
-216.75411825
 20
-187.22989533
 30
0.0
 11
-216.75411825
 21
176.59853179
 31
0.0
  0
LINE
  5
1D5
100
AcDbEntity
  8
0
100
AcDbLine
 10
-65.58254537
 20
327.77010467
 30
0.0
 11
-216.75411825
 21
176.59853179
 31
0.0
  0
LINE
  5
1D6
100
AcDbEntity
  8
0
100
AcDbLine
 10
-65.58254537
 20
327.77010467
 30
0.0
 11
462.07430888
 21
327.77010467
 31
0.0
  0
LINE
  5
1D7
100
AcDbEntity
  8
0
100
AcDbLine
 10
613.24588175
 20
176.59853179
 30
0.0
 11
462.07430888
 21
327.77010467
 31
0.0
  0
LINE
  5
1D8
100
AcDbEntity
  8
0
100
AcDbLine
 10
613.24588175
 20
-187.22989533
 30
0.0
 11
613.24588175
 21
176.59853179
 31
0.0
  0
LINE
  5
1D9
100
AcDbEntity
  8
0
100
AcDbLine
 10
-216.75411825
 20
-187.22989533
 30
0.0
 11
613.24588175
 21
-187.22989533
 31
0.0
  0
ENDBLK
  5
1DA
100
AcDbEntity
  8
0
100
AcDbBlockEnd
  0
BLOCK
  5
1DB
100
AcDbEntity
  8
0
100
AcDbBlockBegin
  2
ANSCHLUßFLANSCH_00009
 70
    64
 10
0.0
 20
0.0
 30
0.0
  3
ANSCHLUßFLANSCH_00009
  0
INSERT
  5
1DC
100
AcDbEntity
  8
0
100
AcDbBlockReference
  2
_ANSCHLUßFLANSCH_00010
 10
33.82469756
 20
114.15699094
 30
0.0
  0
ENDBLK
  5
1DD
100
AcDbEntity
  8
0
100
AcDbBlockEnd
  0
BLOCK
  5
1DE
100
AcDbEntity
  8
0
100
AcDbBlockBegin
  2
_ANSCHLUßFLANSCH_00010
 70
    64
 10
33.82469756
 20
114.15699094
 30
0.0
  3
_ANSCHLUßFLANSCH_00010
  0
CIRCLE
  5
1DF
100
AcDbEntity
  8
0
100
AcDbCircle
 10
33.82469756
 20
109.65699094
 30
0.0
 40
4.50000000
  0
CIRCLE
  5
1E0
100
AcDbEntity
  8
0
100
AcDbCircle
 10
6.35899548
 20
82.19128886
 30
0.0
 40
4.50000000
  0
CIRCLE
  5
1E1
100
AcDbEntity
  8
0
100
AcDbCircle
 10
6.35899548
 20
43.34892048
 30
0.0
 40
4.50000000
  0
CIRCLE
  5
1E2
100
AcDbEntity
  8
0
100
AcDbCircle
 10
33.82469756
 20
15.88321839
 30
0.0
 40
4.50000000
  0
CIRCLE
  5
1E3
100
AcDbEntity
  8
0
100
AcDbCircle
 10
72.66706595
 20
15.88321839
 30
0.0
 40
4.50000000
  0
CIRCLE
  5
1E4
100
AcDbEntity
  8
0
100
AcDbCircle
 10
100.13276803
 20
43.34892048
 30
0.0
 40
4.50000000
  0
CIRCLE
  5
1E5
100
AcDbEntity
  8
0
100
AcDbCircle
 10
100.13276803
 20
82.19128886
 30
0.0
 40
4.50000000
  0
CIRCLE
  5
1E6
100
AcDbEntity
  8
0
100
AcDbCircle
 10
72.66706595
 20
109.65699094
 30
0.0
 40
4.50000000
  0
CIRCLE
  5
1E7
100
AcDbEntity
  8
0
100
AcDbCircle
 10
53.24588175
 20
62.77010467
 30
0.0
 40
60.00000000
  0
ENDBLK
  5
1E8
100
AcDbEntity
  8
0
100
AcDbBlockEnd
  0
BLOCK
  5
1E9
100
AcDbEntity
  8
0
100
AcDbBlockBegin
  2
ANS3D03_00011
 70
    64
 10
0.0
 20
0.0
 30
0.0
  3
ANS3D03_00011
  0
INSERT
  5
1EA
100
AcDbEntity
  8
0
100
AcDbBlockReference
  2
FIG3D03_00012
 10
0.0
 20
0.0
 30
0.0
  0
ENDBLK
  5
1EB
100
AcDbEntity
  8
0
100
AcDbBlockEnd
  0
BLOCK
  5
1EC
100
AcDbEntity
  8
0
100
AcDbBlockBegin
  2
FIG3D03_00012
 70
    64
 10
0.0
 20
0.0
 30
0.0
  3
FIG3D03_00012
  0
INSERT
  5
1ED
100
AcDbEntity
  8
0
100
AcDbBlockReference
  2
JR20_00013
 10
0.0
 20
0.0
 30
0.0
  0
ENDBLK
  5
1EE
100
AcDbEntity
  8
0
100
AcDbBlockEnd
  0
BLOCK
  5
1EF
100
AcDbEntity
  8
0
100
AcDbBlockBegin
  2
JR20_00013
 70
    64
 10
0.0
 20
0.0
 30
0.0
  3
JR20_00013
  0
INSERT
  5
1F0
100
AcDbEntity
  8
0
100
AcDbBlockReference
  2
GEHÄUSE_00014
 10
0.0
 20
0.0
 30
0.0
  0
INSERT
  5
1F1
100
AcDbEntity
  8
0
100
AcDbBlockReference
  2
SCHUTZHAUBE_00016
 10
0.0
 20
0.0
 30
0.0
  0
ENDBLK
  5
1F2
100
AcDbEntity
  8
0
100
AcDbBlockEnd
  0
BLOCK
  5
1F3
100
AcDbEntity
  8
0
100
AcDbBlockBegin
  2
GEHÄUSE_00014
 70
    64
 10
0.0
 20
0.0
 30
0.0
  3
GEHÄUSE_00014
  0
INSERT
  5
1F4
100
AcDbEntity
  8
0
100
AcDbBlockReference
  2
_GEHÄUSE_00015
 10
1323.72671457
 20
-197.22989533
 30
0.0
  0
ENDBLK
  5
1F5
100
AcDbEntity
  8
0
100
AcDbBlockEnd
  0
BLOCK
  5
1F6
100
AcDbEntity
  8
0
100
AcDbBlockBegin
  2
_GEHÄUSE_00015
 70
    64
 10
1323.72671457
 20
-197.22989533
 30
0.0
  3
_GEHÄUSE_00015
  0
LINE
  5
1F7
100
AcDbEntity
  8
0
100
AcDbLine
 10
1323.72671457
 20
-197.22989533
 30
0.0
 11
1323.72671457
 21
-170.22989533
 31
0.0
  0
LINE
  5
1F8
100
AcDbEntity
  8
0
100
AcDbLine
 10
1253.72671457
 20
-170.22989533
 30
0.0
 11
1323.72671457
 21
-170.22989533
 31
0.0
  0
LINE
  5
1F9
100
AcDbEntity
  8
0
100
AcDbLine
 10
1253.72671457
 20
-50.22989533
 30
0.0
 11
1253.72671457
 21
-170.22989533
 31
0.0
  0
LINE
  5
1FA
100
AcDbEntity
  8
0
100
AcDbLine
 10
1323.72671457
 20
-50.22989533
 30
0.0
 11
1253.72671457
 21
-50.22989533
 31
0.0
  0
LINE
  5
1FB
100
AcDbEntity
  8
0
100
AcDbLine
 10
1323.72671457
 20
-50.22989533
 30
0.0
 11
1323.72671457
 21
237.77010467
 31
0.0
  0
LINE
  5
1FC
100
AcDbEntity
  8
0
100
AcDbLine
 10
1073.72671457
 20
237.77010467
 30
0.0
 11
1323.72671457
 21
237.77010467
 31
0.0
  0
LINE
  5
1FD
100
AcDbEntity
  8
0
100
AcDbLine
 10
1073.72671457
 20
-50.22989533
 30
0.0
 11
1073.72671457
 21
237.77010467
 31
0.0
  0
LINE
  5
1FE
100
AcDbEntity
  8
0
100
AcDbLine
 10
1143.72671457
 20
-50.22989533
 30
0.0
 11
1073.72671457
 21
-50.22989533
 31
0.0
  0
LINE
  5
1FF
100
AcDbEntity
  8
0
100
AcDbLine
 10
1143.72671457
 20
-170.22989533
 30
0.0
 11
1143.72671457
 21
-50.22989533
 31
0.0
  0
LINE
  5
200
100
AcDbEntity
  8
0
100
AcDbLine
 10
1073.72671457
 20
-170.22989533
 30
0.0
 11
1143.72671457
 21
-170.22989533
 31
0.0
  0
LINE
  5
201
100
AcDbEntity
  8
0
100
AcDbLine
 10
1073.72671457
 20
-197.22989533
 30
0.0
 11
1073.72671457
 21
-170.22989533
 31
0.0
  0
LINE
  5
202
100
AcDbEntity
  8
0
100
AcDbLine
 10
1073.72671457
 20
-197.22989533
 30
0.0
 11
1161.72671457
 21
-197.22989533
 31
0.0
  0
LINE
  5
203
100
AcDbEntity
  8
0
100
AcDbLine
 10
1161.72671457
 20
-192.22989533
 30
0.0
 11
1161.72671457
 21
-197.22989533
 31
0.0
  0
LINE
  5
204
100
AcDbEntity
  8
0
100
AcDbLine
 10
1235.72671457
 20
-192.22989533
 30
0.0
 11
1161.72671457
 21
-192.22989533
 31
0.0
  0
LINE
  5
205
100
AcDbEntity
  8
0
100
AcDbLine
 10
1235.72671457
 20
-197.22989533
 30
0.0
 11
1235.72671457
 21
-192.22989533
 31
0.0
  0
LINE
  5
206
100
AcDbEntity
  8
0
100
AcDbLine
 10
1235.72671457
 20
-197.22989533
 30
0.0
 11
1323.72671457
 21
-197.22989533
 31
0.0
  0
ENDBLK
  5
207
100
AcDbEntity
  8
0
100
AcDbBlockEnd
  0
BLOCK
  5
208
100
AcDbEntity
  8
0
100
AcDbBlockBegin
  2
SCHUTZHAUBE_00016
 70
    64
 10
0.0
 20
0.0
 30
0.0
  3
SCHUTZHAUBE_00016
  0
INSERT
  5
209
100
AcDbEntity
  8
0
100
AcDbBlockReference
  2
SCHUTZHAUBE_00017
 10
0.0
 20
0.0
 30
0.0
  0
INSERT
  5
20A
100
AcDbEntity
  8
0
100
AcDbBlockReference
  2
SCHUTZHAUBE_00019
 10
0.0
 20
0.0
 30
0.0
  0
ENDBLK
  5
20B
100
AcDbEntity
  8
0
100
AcDbBlockEnd
  0
BLOCK
  5
20C
100
AcDbEntity
  8
0
100
AcDbBlockBegin
  2
SCHUTZHAUBE_00017
 70
    64
 10
0.0
 20
0.0
 30
0.0
  3
SCHUTZHAUBE_00017
  0
INSERT
  5
20D
100
AcDbEntity
  8
0
100
AcDbBlockReference
  2
_SCHUTZHAUBE_00018
 10
868.72671457
 20
176.59853179
 30
0.0
  0
ENDBLK
  5
20E
100
AcDbEntity
  8
0
100
AcDbBlockEnd
  0
BLOCK
  5
20F
100
AcDbEntity
  8
0
100
AcDbBlockBegin
  2
_SCHUTZHAUBE_00018
 70
    64
 10
868.72671457
 20
176.59853179
 30
0.0
  3
_SCHUTZHAUBE_00018
  0
LINE
  5
210
100
AcDbEntity
  8
0
100
AcDbLine
 10
868.72671457
 20
176.59853179
 30
0.0
 11
1073.72671457
 21
176.59853179
 31
0.0
  0
LINE
  5
211
100
AcDbEntity
  8
0
100
AcDbLine
 10
1073.72671457
 20
-187.22989533
 30
0.0
 11
1073.72671457
 21
176.59853179
 31
0.0
  0
POLYLINE
  5
212
100
AcDbEntity
  8
0
100
AcDb2dPolyline
 66
     1
  0
VERTEX
  5
213
100
AcDbEntity
  8
0
100
AcDbVertex
100
AcDb2dVertex
 10
1073.72671457
 20
-187.22989533
 30
0.0
  0
VERTEX
  5
214
100
AcDbEntity
  8
0
100
AcDbVertex
100
AcDb2dVertex
 10
868.72671457
 20
-187.22989533
 30
0.0
  0
VERTEX
  5
215
100
AcDbEntity
  8
0
100
AcDbVertex
100
AcDb2dVertex
 10
868.72671457
 20
176.59853179
 30
0.0
  0
SEQEND
  5
216
100
AcDbEntity
  8
0
  0
LINE
  5
217
100
AcDbEntity
  8
0
100
AcDbLine
 10
868.72671457
 20
327.77010467
 30
0.0
 11
868.72671457
 21
176.59853179
 31
0.0
  0
LINE
  5
218
100
AcDbEntity
  8
0
100
AcDbLine
 10
1075.72671457
 20
327.77010467
 30
0.0
 11
868.72671457
 21
327.77010467
 31
0.0
  0
LINE
  5
219
100
AcDbEntity
  8
0
100
AcDbLine
 10
1075.72671457
 20
237.77010467
 30
0.0
 11
1075.72671457
 21
327.77010467
 31
0.0
  0
LINE
  5
21A
100
AcDbEntity
  8
0
100
AcDbLine
 10
1073.72671457
 20
237.77010467
 30
0.0
 11
1075.72671457
 21
237.77010467
 31
0.0
  0
LINE
  5
21B
100
AcDbEntity
  8
0
100
AcDbLine
 10
1073.72671457
 20
176.59853179
 30
0.0
 11
1073.72671457
 21
237.77010467
 31
0.0
  0
ENDBLK
  5
21C
100
AcDbEntity
  8
0
100
AcDbBlockEnd
  0
BLOCK
  5
21D
100
AcDbEntity
  8
0
100
AcDbBlockBegin
  2
SCHUTZHAUBE_00019
 70
    64
 10
0.0
 20
0.0
 30
0.0
  3
SCHUTZHAUBE_00019
  0
INSERT
  5
21E
100
AcDbEntity
  8
0
100
AcDbBlockReference
  2
_SCHUTZHAUBE_00020
 10
1323.72671457
 20
176.59853179
 30
0.0
  0
ENDBLK
  5
21F
100
AcDbEntity
  8
0
100
AcDbBlockEnd
  0
BLOCK
  5
220
100
AcDbEntity
  8
0
100
AcDbBlockBegin
  2
_SCHUTZHAUBE_00020
 70
    64
 10
1323.72671457
 20
176.59853179
 30
0.0
  3
_SCHUTZHAUBE_00020
  0
POLYLINE
  5
221
100
AcDbEntity
  8
0
100
AcDb2dPolyline
 66
     1
  0
VERTEX
  5
222
100
AcDbEntity
  8
0
100
AcDbVertex
100
AcDb2dVertex
 10
1323.72671457
 20
176.59853179
 30
0.0
  0
VERTEX
  5
223
100
AcDbEntity
  8
0
100
AcDbVertex
100
AcDb2dVertex
 10
1323.72671457
 20
237.77010467
 30
0.0
  0
VERTEX
  5
224
100
AcDbEntity
  8
0
100
AcDbVertex
100
AcDb2dVertex
 10
1321.72671457
 20
237.77010467
 30
0.0
  0
VERTEX
  5
225
100
AcDbEntity
  8
0
100
AcDbVertex
100
AcDb2dVertex
 10
1321.72671457
 20
327.77010467
 30
0.0
  0
VERTEX
  5
226
100
AcDbEntity
  8
0
100
AcDbVertex
100
AcDb2dVertex
 10
1528.72671457
 20
327.77010467
 30
0.0
  0
VERTEX
  5
227
100
AcDbEntity
  8
0
100
AcDbVertex
100
AcDb2dVertex
 10
1528.72671457
 20
176.59853179
 30
0.0
  0
VERTEX
  5
228
100
AcDbEntity
  8
0
100
AcDbVertex
100
AcDb2dVertex
 10
1323.72671457
 20
176.59853179
 30
0.0
  0
SEQEND
  5
229
100
AcDbEntity
  8
0
  0
LINE
  5
22A
100
AcDbEntity
  8
0
100
AcDbLine
 10
1323.72671457
 20
-187.22989533
 30
0.0
 11
1323.72671457
 21
176.59853179
 31
0.0
  0
POLYLINE
  5
22B
100
AcDbEntity
  8
0
100
AcDb2dPolyline
 66
     1
  0
VERTEX
  5
22C
100
AcDbEntity
  8
0
100
AcDbVertex
100
AcDb2dVertex
 10
1323.72671457
 20
-187.22989533
 30
0.0
  0
VERTEX
  5
22D
100
AcDbEntity
  8
0
100
AcDbVertex
100
AcDb2dVertex
 10
1528.72671457
 20
-187.22989533
 30
0.0
  0
VERTEX
  5
22E
100
AcDbEntity
  8
0
100
AcDbVertex
100
AcDb2dVertex
 10
1528.72671457
 20
176.59853179
 30
0.0
  0
SEQEND
  5
22F
100
AcDbEntity
  8
0
  0
ENDBLK
  5
230
100
AcDbEntity
  8
0
100
AcDbBlockEnd
  0
BLOCK
  5
231
100
AcDbEntity
  8
0
100
AcDbBlockBegin
  2
ANS3D04_00021
 70
    64
 10
0.0
 20
0.0
 30
0.0
  3
ANS3D04_00021
  0
INSERT
  5
232
100
AcDbEntity
  8
0
100
AcDbBlockReference
  2
FIG3D04_00022
 10
0.0
 20
0.0
 30
0.0
  0
ENDBLK
  5
233
100
AcDbEntity
  8
0
100
AcDbBlockEnd
  0
BLOCK
  5
234
100
AcDbEntity
  8
0
100
AcDbBlockBegin
  2
FIG3D04_00022
 70
    64
 10
0.0
 20
0.0
 30
0.0
  3
FIG3D04_00022
  0
INSERT
  5
235
100
AcDbEntity
  8
0
100
AcDbBlockReference
  2
JR20_00023
 10
0.0
 20
0.0
 30
0.0
  0
ENDBLK
  5
236
100
AcDbEntity
  8
0
100
AcDbBlockEnd
  0
BLOCK
  5
237
100
AcDbEntity
  8
0
100
AcDbBlockBegin
  2
JR20_00023
 70
    64
 10
0.0
 20
0.0
 30
0.0
  3
JR20_00023
  0
INSERT
  5
238
100
AcDbEntity
  8
0
100
AcDbBlockReference
  2
GEHÄUSE_00024
 10
0.0
 20
0.0
 30
0.0
  0
INSERT
  5
239
100
AcDbEntity
  8
0
100
AcDbBlockReference
  2
SCHUTZHAUBE_00026
 10
0.0
 20
0.0
 30
0.0
  0
ENDBLK
  5
23A
100
AcDbEntity
  8
0
100
AcDbBlockEnd
  0
BLOCK
  5
23B
100
AcDbEntity
  8
0
100
AcDbBlockBegin
  2
GEHÄUSE_00024
 70
    64
 10
0.0
 20
0.0
 30
0.0
  3
GEHÄUSE_00024
  0
INSERT
  5
23C
100
AcDbEntity
  8
0
100
AcDbBlockReference
  2
_GEHÄUSE_00025
 10
-94.25411825
 20
-545.85229052
 30
0.0
  0
ENDBLK
  5
23D
100
AcDbEntity
  8
0
100
AcDbBlockEnd
  0
BLOCK
  5
23E
100
AcDbEntity
  8
0
100
AcDbBlockBegin
  2
_GEHÄUSE_00025
 70
    64
 10
-94.25411825
 20
-545.85229052
 30
0.0
  3
_GEHÄUSE_00025
  0
LINE
  5
23F
100
AcDbEntity
  8
0
100
AcDbLine
 10
-94.25411825
 20
-545.85229052
 30
0.0
 11
-94.25411825
 21
-791.85229052
 31
0.0
  0
LINE
  5
240
100
AcDbEntity
  8
0
100
AcDbLine
 10
490.74588175
 20
-791.85229052
 30
0.0
 11
490.74588175
 21
-545.85229052
 31
0.0
  0
ENDBLK
  5
241
100
AcDbEntity
  8
0
100
AcDbBlockEnd
  0
BLOCK
  5
242
100
AcDbEntity
  8
0
100
AcDbBlockBegin
  2
SCHUTZHAUBE_00026
 70
    64
 10
0.0
 20
0.0
 30
0.0
  3
SCHUTZHAUBE_00026
  0
INSERT
  5
243
100
AcDbEntity
  8
0
100
AcDbBlockReference
  2
SCHUTZHAUBE_00027
 10
0.0
 20
0.0
 30
0.0
  0
INSERT
  5
244
100
AcDbEntity
  8
0
100
AcDbBlockReference
  2
SCHUTZHAUBE_00029
 10
0.0
 20
0.0
 30
0.0
  0
ENDBLK
  5
245
100
AcDbEntity
  8
0
100
AcDbBlockEnd
  0
BLOCK
  5
246
100
AcDbEntity
  8
0
100
AcDbBlockBegin
  2
SCHUTZHAUBE_00027
 70
    64
 10
0.0
 20
0.0
 30
0.0
  3
SCHUTZHAUBE_00027
  0
INSERT
  5
247
100
AcDbEntity
  8
0
100
AcDbBlockReference
  2
_SCHUTZHAUBE_00028
 10
-155.58254537
 20
-543.85229052
 30
0.0
  0
ENDBLK
  5
248
100
AcDbEntity
  8
0
100
AcDbBlockEnd
  0
BLOCK
  5
249
100
AcDbEntity
  8
0
100
AcDbBlockBegin
  2
_SCHUTZHAUBE_00028
 70
    64
 10
-155.58254537
 20
-543.85229052
 30
0.0
  3
_SCHUTZHAUBE_00028
  0
POLYLINE
  5
24A
100
AcDbEntity
  8
0
100
AcDb2dPolyline
 66
     1
  0
VERTEX
  5
24B
100
AcDbEntity
  8
0
100
AcDbVertex
100
AcDb2dVertex
 10
-155.58254537
 20
-543.85229052
 30
0.0
  0
VERTEX
  5
24C
100
AcDbEntity
  8
0
100
AcDbVertex
100
AcDb2dVertex
 10
-155.58254537
 20
-545.85229052
 30
0.0
  0
VERTEX
  5
24D
100
AcDbEntity
  8
0
100
AcDbVertex
100
AcDb2dVertex
 10
-65.58254537
 20
-545.85229052
 30
0.0
  0
VERTEX
  5
24E
100
AcDbEntity
  8
0
100
AcDbVertex
100
AcDb2dVertex
 10
-65.58254537
 20
-338.85229052
 30
0.0
  0
VERTEX
  5
24F
100
AcDbEntity
  8
0
100
AcDbVertex
100
AcDb2dVertex
 10
-216.75411825
 20
-338.85229052
 30
0.0
  0
VERTEX
  5
250
100
AcDbEntity
  8
0
100
AcDbVertex
100
AcDb2dVertex
 10
-216.75411825
 20
-543.85229052
 30
0.0
  0
VERTEX
  5
251
100
AcDbEntity
  8
0
100
AcDbVertex
100
AcDb2dVertex
 10
-155.58254537
 20
-543.85229052
 30
0.0
  0
SEQEND
  5
252
100
AcDbEntity
  8
0
  0
POLYLINE
  5
253
100
AcDbEntity
  8
0
100
AcDb2dPolyline
 66
     1
  0
VERTEX
  5
254
100
AcDbEntity
  8
0
100
AcDbVertex
100
AcDb2dVertex
 10
-65.58254537
 20
-338.85229052
 30
0.0
  0
VERTEX
  5
255
100
AcDbEntity
  8
0
100
AcDbVertex
100
AcDb2dVertex
 10
462.07430888
 20
-338.85229052
 30
0.0
  0
VERTEX
  5
256
100
AcDbEntity
  8
0
100
AcDbVertex
100
AcDb2dVertex
 10
462.07430888
 20
-545.85229052
 30
0.0
  0
VERTEX
  5
257
100
AcDbEntity
  8
0
100
AcDbVertex
100
AcDb2dVertex
 10
-65.58254537
 20
-545.85229052
 30
0.0
  0
SEQEND
  5
258
100
AcDbEntity
  8
0
  0
POLYLINE
  5
259
100
AcDbEntity
  8
0
100
AcDb2dPolyline
 66
     1
  0
VERTEX
  5
25A
100
AcDbEntity
  8
0
100
AcDbVertex
100
AcDb2dVertex
 10
462.07430888
 20
-545.85229052
 30
0.0
  0
VERTEX
  5
25B
100
AcDbEntity
  8
0
100
AcDbVertex
100
AcDb2dVertex
 10
552.07430888
 20
-545.85229052
 30
0.0
  0
VERTEX
  5
25C
100
AcDbEntity
  8
0
100
AcDbVertex
100
AcDb2dVertex
 10
552.07430888
 20
-543.85229052
 30
0.0
  0
VERTEX
  5
25D
100
AcDbEntity
  8
0
100
AcDbVertex
100
AcDb2dVertex
 10
613.24588175
 20
-543.85229052
 30
0.0
  0
VERTEX
  5
25E
100
AcDbEntity
  8
0
100
AcDbVertex
100
AcDb2dVertex
 10
613.24588175
 20
-338.85229052
 30
0.0
  0
VERTEX
  5
25F
100
AcDbEntity
  8
0
100
AcDbVertex
100
AcDb2dVertex
 10
462.07430888
 20
-338.85229052
 30
0.0
  0
SEQEND
  5
260
100
AcDbEntity
  8
0
  0
ENDBLK
  5
261
100
AcDbEntity
  8
0
100
AcDbBlockEnd
  0
BLOCK
  5
262
100
AcDbEntity
  8
0
100
AcDbBlockBegin
  2
SCHUTZHAUBE_00029
 70
    64
 10
0.0
 20
0.0
 30
0.0
  3
SCHUTZHAUBE_00029
  0
INSERT
  5
263
100
AcDbEntity
  8
0
100
AcDbBlockReference
  2
_SCHUTZHAUBE_00030
 10
552.07430888
 20
-793.85229052
 30
0.0
  0
ENDBLK
  5
264
100
AcDbEntity
  8
0
100
AcDbBlockEnd
  0
BLOCK
  5
265
100
AcDbEntity
  8
0
100
AcDbBlockBegin
  2
_SCHUTZHAUBE_00030
 70
    64
 10
552.07430888
 20
-793.85229052
 30
0.0
  3
_SCHUTZHAUBE_00030
  0
POLYLINE
  5
266
100
AcDbEntity
  8
0
100
AcDb2dPolyline
 66
     1
  0
VERTEX
  5
267
100
AcDbEntity
  8
0
100
AcDbVertex
100
AcDb2dVertex
 10
552.07430888
 20
-793.85229052
 30
0.0
  0
VERTEX
  5
268
100
AcDbEntity
  8
0
100
AcDbVertex
100
AcDb2dVertex
 10
613.24588175
 20
-793.85229052
 30
0.0
  0
VERTEX
  5
269
100
AcDbEntity
  8
0
100
AcDbVertex
100
AcDb2dVertex
 10
613.24588175
 20
-998.85229052
 30
0.0
  0
VERTEX
  5
26A
100
AcDbEntity
  8
0
100
AcDbVertex
100
AcDb2dVertex
 10
462.07430888
 20
-998.85229052
 30
0.0
  0
VERTEX
  5
26B
100
AcDbEntity
  8
0
100
AcDbVertex
100
AcDb2dVertex
 10
462.07430888
 20
-791.85229052
 30
0.0
  0
VERTEX
  5
26C
100
AcDbEntity
  8
0
100
AcDbVertex
100
AcDb2dVertex
 10
552.07430888
 20
-791.85229052
 30
0.0
  0
VERTEX
  5
26D
100
AcDbEntity
  8
0
100
AcDbVertex
100
AcDb2dVertex
 10
552.07430888
 20
-793.85229052
 30
0.0
  0
SEQEND
  5
26E
100
AcDbEntity
  8
0
  0
POLYLINE
  5
26F
100
AcDbEntity
  8
0
100
AcDb2dPolyline
 66
     1
  0
VERTEX
  5
270
100
AcDbEntity
  8
0
100
AcDbVertex
100
AcDb2dVertex
 10
462.07430888
 20
-791.85229052
 30
0.0
  0
VERTEX
  5
271
100
AcDbEntity
  8
0
100
AcDbVertex
100
AcDb2dVertex
 10
-65.58254537
 20
-791.85229052
 30
0.0
  0
VERTEX
  5
272
100
AcDbEntity
  8
0
100
AcDbVertex
100
AcDb2dVertex
 10
-65.58254537
 20
-998.85229052
 30
0.0
  0
VERTEX
  5
273
100
AcDbEntity
  8
0
100
AcDbVertex
100
AcDb2dVertex
 10
462.07430888
 20
-998.85229052
 30
0.0
  0
SEQEND
  5
274
100
AcDbEntity
  8
0
  0
POLYLINE
  5
275
100
AcDbEntity
  8
0
100
AcDb2dPolyline
 66
     1
  0
VERTEX
  5
276
100
AcDbEntity
  8
0
100
AcDbVertex
100
AcDb2dVertex
 10
-65.58254537
 20
-998.85229052
 30
0.0
  0
VERTEX
  5
277
100
AcDbEntity
  8
0
100
AcDbVertex
100
AcDb2dVertex
 10
-216.75411825
 20
-998.85229052
 30
0.0
  0
VERTEX
  5
278
100
AcDbEntity
  8
0
100
AcDbVertex
100
AcDb2dVertex
 10
-216.75411825
 20
-793.85229052
 30
0.0
  0
VERTEX
  5
279
100
AcDbEntity
  8
0
100
AcDbVertex
100
AcDb2dVertex
 10
-155.58254537
 20
-793.85229052
 30
0.0
  0
VERTEX
  5
27A
100
AcDbEntity
  8
0
100
AcDbVertex
100
AcDb2dVertex
 10
-155.58254537
 20
-791.85229052
 30
0.0
  0
VERTEX
  5
27B
100
AcDbEntity
  8
0
100
AcDbVertex
100
AcDb2dVertex
 10
-65.58254537
 20
-791.85229052
 30
0.0
  0
SEQEND
  5
27C
100
AcDbEntity
  8
0
  0
ENDBLK
  5
27D
100
AcDbEntity
  8
0
100
AcDbBlockEnd
  0
BLOCK
  5
27E
100
AcDbEntity
  8
0
100
AcDbBlockBegin
  2
ANS3D05_00031
 70
    64
 10
0.0
 20
0.0
 30
0.0
  3
ANS3D05_00031
  0
INSERT
  5
27F
100
AcDbEntity
  8
0
100
AcDbBlockReference
  2
FIG3D05_00032
 10
0.0
 20
0.0
 30
0.0
  0
ENDBLK
  5
280
100
AcDbEntity
  8
0
100
AcDbBlockEnd
  0
BLOCK
  5
281
100
AcDbEntity
  8
0
100
AcDbBlockBegin
  2
FIG3D05_00032
 70
    64
 10
0.0
 20
0.0
 30
0.0
  3
FIG3D05_00032
  0
INSERT
  5
282
100
AcDbEntity
  8
0
100
AcDbBlockReference
  2
JR20_00033
 10
0.0
 20
0.0
 30
0.0
  0
ENDBLK
  5
283
100
AcDbEntity
  8
0
100
AcDbBlockEnd
  0
BLOCK
  5
284
100
AcDbEntity
  8
0
100
AcDbBlockBegin
  2
JR20_00033
 70
    64
 10
0.0
 20
0.0
 30
0.0
  3
JR20_00033
  0
INSERT
  5
285
100
AcDbEntity
  8
0
100
AcDbBlockReference
  2
GEHÄUSE_00034
 10
0.0
 20
0.0
 30
0.0
  0
INSERT
  5
286
100
AcDbEntity
  8
0
100
AcDbBlockReference
  2
WELLE_00036
 10
0.0
 20
0.0
 30
0.0
  0
INSERT
  5
287
100
AcDbEntity
  8
0
100
AcDbBlockReference
  2
FLIEHGEWICHT_00039
 10
0.0
 20
0.0
 30
0.0
  0
INSERT
  5
288
100
AcDbEntity
  8
0
100
AcDbBlockReference
  2
SCHUTZHAUBE_00043
 10
0.0
 20
0.0
 30
0.0
  0
INSERT
  5
289
100
AcDbEntity
  8
0
100
AcDbBlockReference
  2
ANSCHLUßFLANSCH_00048
 10
0.0
 20
0.0
 30
0.0
  0
ENDBLK
  5
28A
100
AcDbEntity
  8
0
100
AcDbBlockEnd
  0
BLOCK
  5
28B
100
AcDbEntity
  8
0
100
AcDbBlockBegin
  2
GEHÄUSE_00034
 70
    64
 10
0.0
 20
0.0
 30
0.0
  3
GEHÄUSE_00034
  0
INSERT
  5
28C
100
AcDbEntity
  8
0
100
AcDbBlockReference
  2
_GEHÄUSE_00035
 10
1634.46993876
 20
-647.00885923
 30
0.0
  0
ENDBLK
  5
28D
100
AcDbEntity
  8
0
100
AcDbBlockEnd
  0
BLOCK
  5
28E
100
AcDbEntity
  8
0
100
AcDbBlockBegin
  2
_GEHÄUSE_00035
 70
    64
 10
1634.46993876
 20
-647.00885923
 30
0.0
  3
_GEHÄUSE_00035
  0
LINE
  5
28F
100
AcDbEntity
  8
0
100
AcDbLine
 10
1634.46993876
 20
-647.00885923
 30
0.0
 11
1634.46993876
 21
-527.36839020
 31
0.0
  0
LINE
  5
290
100
AcDbEntity
  8
0
100
AcDbLine
 10
1575.47244319
 20
-578.68659397
 30
0.0
 11
1633.76283198
 21
-527.27930312
 31
0.0
  0
LINE
  5
291
100
AcDbEntity
  8
0
100
AcDbLine
 10
1086.54543916
 20
-458.33639195
 30
0.0
 11
1083.75859628
 21
-460.79415636
 31
0.0
  0
ENDBLK
  5
292
100
AcDbEntity
  8
0
100
AcDbBlockEnd
  0
BLOCK
  5
293
100
AcDbEntity
  8
0
100
AcDbBlockBegin
  2
WELLE_00036
 70
    64
 10
0.0
 20
0.0
 30
0.0
  3
WELLE_00036
  0
INSERT
  5
294
100
AcDbEntity
  8
0
100
AcDbBlockReference
  2
WELLE_00037
 10
0.0
 20
0.0
 30
0.0
  0
ENDBLK
  5
295
100
AcDbEntity
  8
0
100
AcDbBlockEnd
  0
BLOCK
  5
296
100
AcDbEntity
  8
0
100
AcDbBlockBegin
  2
WELLE_00037
 70
    64
 10
0.0
 20
0.0
 30
0.0
  3
WELLE_00037
  0
INSERT
  5
297
100
AcDbEntity
  8
0
100
AcDbBlockReference
  2
_WELLE_00038
 10
1126.03550552
 20
-767.56534291
 30
0.0
  0
ENDBLK
  5
298
100
AcDbEntity
  8
0
100
AcDbBlockEnd
  0
BLOCK
  5
299
100
AcDbEntity
  8
0
100
AcDbBlockBegin
  2
_WELLE_00038
 70
    64
 10
1126.03550552
 20
-767.56534291
 30
0.0
  3
_WELLE_00038
  0
LINE
  5
29A
100
AcDbEntity
  8
0
100
AcDbLine
 10
1126.03550552
 20
-767.56534291
 30
0.0
 11
1125.64288972
 21
-767.91159751
 31
0.0
  0
LINE
  5
29B
100
AcDbEntity
  8
0
100
AcDbLine
 10
1086.34923585
 20
-722.56534291
 30
0.0
 11
1085.95662005
 21
-722.91159751
 31
0.0
  0
ENDBLK
  5
29C
100
AcDbEntity
  8
0
100
AcDbBlockEnd
  0
BLOCK
  5
29D
100
AcDbEntity
  8
0
100
AcDbBlockBegin
  2
FLIEHGEWICHT_00039
 70
    64
 10
0.0
 20
0.0
 30
0.0
  3
FLIEHGEWICHT_00039
  0
INSERT
  5
29E
100
AcDbEntity
  8
0
100
AcDbBlockReference
  2
FLIEHGEWICHT_00040
 10
0.0
 20
0.0
 30
0.0
  0
ENDBLK
  5
29F
100
AcDbEntity
  8
0
100
AcDbBlockEnd
  0
BLOCK
  5
2A0
100
AcDbEntity
  8
0
100
AcDbBlockBegin
  2
FLIEHGEWICHT_00040
 70
    64
 10
0.0
 20
0.0
 30
0.0
  3
FLIEHGEWICHT_00040
  0
INSERT
  5
2A1
100
AcDbEntity
  8
0
100
AcDbBlockReference
  2
FLIEHGEWICHT_00041
 10
0.0
 20
0.0
 30
0.0
  0
ENDBLK
  5
2A2
100
AcDbEntity
  8
0
100
AcDbBlockEnd
  0
BLOCK
  5
2A3
100
AcDbEntity
  8
0
100
AcDbBlockBegin
  2
FLIEHGEWICHT_00041
 70
    64
 10
0.0
 20
0.0
 30
0.0
  3
FLIEHGEWICHT_00041
  0
INSERT
  5
2A4
100
AcDbEntity
  8
0
100
AcDbBlockReference
  2
_FLIEHGEWICHT_00042
 10
1660.66984858
 20
-826.69587151
 30
0.0
  0
ENDBLK
  5
2A5
100
AcDbEntity
  8
0
100
AcDbBlockEnd
  0
BLOCK
  5
2A6
100
AcDbEntity
  8
0
100
AcDbBlockBegin
  2
_FLIEHGEWICHT_00042
 70
    64
 10
1660.66984858
 20
-826.69587151
 30
0.0
  3
_FLIEHGEWICHT_00042
  0
ELLIPSE
  5
2A7
100
AcDbEntity
  8
0
100
AcDbEllipse
 10
1533.44265194
 20
-641.68063438
 30
0.0
 11
148.82351125
 21
-168.75000000
 31
0.0
 40
0.88191710
 41
6.14692015
 42
0.00000000
  0
ELLIPSE
  5
2A8
100
AcDbEntity
  8
0
100
AcDbEllipse
 10
1533.44265194
 20
-641.68063438
 30
0.0
 11
148.82351125
 21
-168.75000000
 31
0.0
 40
0.88191710
 41
0.00000000
 42
1.25040258
  0
ELLIPSE
  5
2A9
100
AcDbEntity
  8
0
100
AcDbEllipse
 10
1553.77197190
 20
-623.75185940
 30
0.0
 11
148.82351125
 21
-168.75000000
 31
0.0
 40
0.88191710
 41
6.28318531
 42
0.38007924
  0
LINE
  5
2AA
100
AcDbEntity
  8
0
100
AcDbLine
 10
1682.26616319
 20
-810.43063438
 30
0.0
 11
1702.59548314
 21
-792.50185940
 31
0.0
  0
ENDBLK
  5
2AB
100
AcDbEntity
  8
0
100
AcDbBlockEnd
  0
BLOCK
  5
2AC
100
AcDbEntity
  8
0
100
AcDbBlockBegin
  2
SCHUTZHAUBE_00043
 70
    64
 10
0.0
 20
0.0
 30
0.0
  3
SCHUTZHAUBE_00043
  0
INSERT
  5
2AD
100
AcDbEntity
  8
0
100
AcDbBlockReference
  2
SCHUTZHAUBE_00044
 10
0.0
 20
0.0
 30
0.0
  0
INSERT
  5
2AE
100
AcDbEntity
  8
0
100
AcDbBlockReference
  2
SCHUTZHAUBE_00046
 10
0.0
 20
0.0
 30
0.0
  0
ENDBLK
  5
2AF
100
AcDbEntity
  8
0
100
AcDbBlockEnd
  0
BLOCK
  5
2B0
100
AcDbEntity
  8
0
100
AcDbBlockBegin
  2
SCHUTZHAUBE_00044
 70
    64
 10
0.0
 20
0.0
 30
0.0
  3
SCHUTZHAUBE_00044
  0
INSERT
  5
2B1
100
AcDbEntity
  8
0
100
AcDbBlockReference
  2
_SCHUTZHAUBE_00045
 10
1046.30645546
 20
-456.07563013
 30
0.0
  0
ENDBLK
  5
2B2
100
AcDbEntity
  8
0
100
AcDbBlockEnd
  0
BLOCK
  5
2B3
100
AcDbEntity
  8
0
100
AcDbBlockBegin
  2
_SCHUTZHAUBE_00045
 70
    64
 10
1046.30645546
 20
-456.07563013
 30
0.0
  3
_SCHUTZHAUBE_00045
  0
LINE
  5
2B4
100
AcDbEntity
  8
0
100
AcDbLine
 10
1046.30645546
 20
-456.07563013
 30
0.0
 11
1046.30645546
 21
-453.26675653
 31
0.0
  0
LINE
  5
2B5
100
AcDbEntity
  8
0
100
AcDbLine
 10
1026.39110569
 20
-453.56653191
 30
0.0
 11
1029.17794857
 21
-451.10876750
 31
0.0
  0
LINE
  5
2B6
100
AcDbEntity
  8
0
100
AcDbLine
 10
1031.82369988
 20
-451.44210084
 30
0.0
 11
1029.03685700
 21
-453.89986524
 31
0.0
  0
LINE
  5
2B7
100
AcDbEntity
  8
0
100
AcDbLine
 10
1660.66984858
 20
-858.31170512
 30
0.0
 11
1747.18736753
 21
-869.21188794
 31
0.0
  0
POLYLINE
  5
2B8
100
AcDbEntity
  8
0
100
AcDb2dPolyline
 66
     1
  0
VERTEX
  5
2B9
100
AcDbEntity
  8
0
100
AcDbVertex
100
AcDb2dVertex
 10
1747.18736753
 20
-941.55059741
 30
0.0
  0
VERTEX
  5
2BA
100
AcDbEntity
  8
0
100
AcDbVertex
100
AcDb2dVertex
 10
1747.18736753
 20
-599.31091532
 30
0.0
  0
VERTEX
  5
2BB
100
AcDbEntity
  8
0
100
AcDbVertex
100
AcDb2dVertex
 10
1689.89878482
 20
-534.35176840
 30
0.0
  0
SEQEND
  5
2BC
100
AcDbEntity
  8
0
  0
POLYLINE
  5
2BD
100
AcDbEntity
  8
0
100
AcDb2dPolyline
 66
     1
  0
VERTEX
  5
2BE
100
AcDbEntity
  8
0
100
AcDbVertex
100
AcDb2dVertex
 10
1691.83742935
 20
-533.88331800
 30
0.0
  0
VERTEX
  5
2BF
100
AcDbEntity
  8
0
100
AcDbVertex
100
AcDb2dVertex
 10
1749.05819623
 20
-598.76556900
 30
0.0
  0
VERTEX
  5
2C0
100
AcDbEntity
  8
0
100
AcDbVertex
100
AcDb2dVertex
 10
1749.05819623
 20
-941.78629967
 30
0.0
  0
VERTEX
  5
2C1
100
AcDbEntity
  8
0
100
AcDbVertex
100
AcDb2dVertex
 10
1747.18736753
 20
-941.55059741
 30
0.0
  0
SEQEND
  5
2C2
100
AcDbEntity
  8
0
  0
LINE
  5
2C3
100
AcDbEntity
  8
0
100
AcDbLine
 10
1821.53664130
 20
-877.86631932
 30
0.0
 11
1749.05819623
 21
-941.78629967
 31
0.0
  0
LINE
  5
2C4
100
AcDbEntity
  8
0
100
AcDbLine
 10
1821.53664130
 20
-877.86631932
 30
0.0
 11
1821.53664130
 21
-534.84558864
 31
0.0
  0
POLYLINE
  5
2C5
100
AcDbEntity
  8
0
100
AcDb2dPolyline
 66
     1
  0
VERTEX
  5
2C6
100
AcDbEntity
  8
0
100
AcDbVertex
100
AcDb2dVertex
 10
1749.05819623
 20
-598.76556900
 30
0.0
  0
VERTEX
  5
2C7
100
AcDbEntity
  8
0
100
AcDbVertex
100
AcDb2dVertex
 10
1821.53664130
 20
-534.84558864
 30
0.0
  0
VERTEX
  5
2C8
100
AcDbEntity
  8
0
100
AcDbVertex
100
AcDb2dVertex
 10
1680.12858322
 20
-374.50392219
 30
0.0
  0
VERTEX
  5
2C9
100
AcDbEntity
  8
0
100
AcDbVertex
100
AcDb2dVertex
 10
1606.94303137
 20
-439.04751211
 30
0.0
  0
VERTEX
  5
2CA
100
AcDbEntity
  8
0
100
AcDbVertex
100
AcDb2dVertex
 10
1691.13032257
 20
-534.50692757
 30
0.0
  0
VERTEX
  5
2CB
100
AcDbEntity
  8
0
100
AcDbVertex
100
AcDb2dVertex
 10
1691.83742935
 20
-533.88331800
 30
0.0
  0
SEQEND
  5
2CC
100
AcDbEntity
  8
0
  0
LINE
  5
2CD
100
AcDbEntity
  8
0
100
AcDbLine
 10
1029.17794857
 20
-451.10876750
 30
0.0
 11
1691.13032257
 21
-534.50692757
 31
0.0
  0
POLYLINE
  5
2CE
100
AcDbEntity
  8
0
100
AcDb2dPolyline
 66
     1
  0
VERTEX
  5
2CF
100
AcDbEntity
  8
0
100
AcDbVertex
100
AcDb2dVertex
 10
1029.17794857
 20
-451.10876750
 30
0.0
  0
VERTEX
  5
2D0
100
AcDbEntity
  8
0
100
AcDbVertex
100
AcDb2dVertex
 10
1113.36523977
 20
-376.86255548
 30
0.0
  0
VERTEX
  5
2D1
100
AcDbEntity
  8
0
100
AcDbVertex
100
AcDb2dVertex
 10
1186.55079162
 20
-312.31896556
 30
0.0
  0
VERTEX
  5
2D2
100
AcDbEntity
  8
0
100
AcDbVertex
100
AcDb2dVertex
 10
1680.12858322
 20
-374.50392219
 30
0.0
  0
SEQEND
  5
2D3
100
AcDbEntity
  8
0
  0
LINE
  5
2D4
100
AcDbEntity
  8
0
100
AcDbLine
 10
1606.94303137
 20
-439.04751211
 30
0.0
 11
1113.36523977
 21
-376.86255548
 31
0.0
  0
ENDBLK
  5
2D5
100
AcDbEntity
  8
0
100
AcDbBlockEnd
  0
BLOCK
  5
2D6
100
AcDbEntity
  8
0
100
AcDbBlockBegin
  2
SCHUTZHAUBE_00046
 70
    64
 10
0.0
 20
0.0
 30
0.0
  3
SCHUTZHAUBE_00046
  0
INSERT
  5
2D7
100
AcDbEntity
  8
0
100
AcDbBlockReference
  2
_SCHUTZHAUBE_00047
 10
1018.05872142
 20
-729.45858228
 30
0.0
  0
ENDBLK
  5
2D8
100
AcDbEntity
  8
0
100
AcDbBlockEnd
  0
BLOCK
  5
2D9
100
AcDbEntity
  8
0
100
AcDbBlockBegin
  2
_SCHUTZHAUBE_00047
 70
    64
 10
1018.05872142
 20
-729.45858228
 30
0.0
  3
_SCHUTZHAUBE_00047
  0
ELLIPSE
  5
2DA
100
AcDbEntity
  8
0
100
AcDbEllipse
 10
1064.35936936
 20
-781.95858228
 30
0.0
 11
46.30064794
 21
-52.50000000
 31
0.0
 40
0.88191710
 41
3.14159265
 42
6.28318531
  0
ELLIPSE
  5
2DB
100
AcDbEntity
  8
0
100
AcDbEllipse
 10
1064.35936936
 20
-781.95858228
 30
0.0
 11
46.30064794
 21
-52.50000000
 31
0.0
 40
0.88191710
 41
0.00000000
 42
3.14159265
  0
ELLIPSE
  5
2DC
100
AcDbEntity
  8
0
100
AcDbEllipse
 10
1065.06647614
 20
-781.33497272
 30
0.0
 11
46.30064794
 21
-52.50000000
 31
0.0
 40
0.88191710
 41
3.14922876
 42
6.27554920
  0
LINE
  5
2DD
100
AcDbEntity
  8
0
100
AcDbLine
 10
1588.19140351
 20
-1083.65747559
 30
0.0
 11
1660.66984858
 21
-1019.73749523
 31
0.0
  0
LINE
  5
2DE
100
AcDbEntity
  8
0
100
AcDbLine
 10
1660.66984858
 20
-676.71676455
 30
0.0
 11
1660.66984858
 21
-1019.73749523
 31
0.0
  0
LINE
  5
2DF
100
AcDbEntity
  8
0
100
AcDbLine
 10
1660.66984858
 20
-676.71676455
 30
0.0
 11
1588.19140351
 21
-740.63674491
 31
0.0
  0
LINE
  5
2E0
100
AcDbEntity
  8
0
100
AcDbLine
 10
1588.19140351
 20
-1083.65747559
 30
0.0
 11
1588.19140351
 21
-740.63674491
 31
0.0
  0
LINE
  5
2E1
100
AcDbEntity
  8
0
100
AcDbLine
 10
811.79749575
 20
-985.84103753
 30
0.0
 11
1588.19140351
 21
-1083.65747559
 31
0.0
  0
LINE
  5
2E2
100
AcDbEntity
  8
0
100
AcDbLine
 10
811.79749575
 20
-985.84103753
 30
0.0
 11
811.79749575
 21
-642.82030685
 31
0.0
  0
LINE
  5
2E3
100
AcDbEntity
  8
0
100
AcDbLine
 10
953.20555383
 20
-518.11012183
 30
0.0
 11
811.79749575
 21
-642.82030685
 31
0.0
  0
LINE
  5
2E4
100
AcDbEntity
  8
0
100
AcDbLine
 10
1026.39110569
 20
-453.56653191
 30
0.0
 11
953.20555383
 21
-518.11012183
 31
0.0
  0
LINE
  5
2E5
100
AcDbEntity
  8
0
100
AcDbLine
 10
1519.96889728
 20
-515.75148854
 30
0.0
 11
1026.39110569
 21
-453.56653191
 31
0.0
  0
POLYLINE
  5
2E6
100
AcDbEntity
  8
0
100
AcDb2dPolyline
 66
     1
  0
VERTEX
  5
2E7
100
AcDbEntity
  8
0
100
AcDbVertex
100
AcDb2dVertex
 10
1519.96889728
 20
-515.75148854
 30
0.0
  0
VERTEX
  5
2E8
100
AcDbEntity
  8
0
100
AcDbVertex
100
AcDb2dVertex
 10
1604.15618848
 20
-611.21090400
 30
0.0
  0
VERTEX
  5
2E9
100
AcDbEntity
  8
0
100
AcDbVertex
100
AcDb2dVertex
 10
1603.44908170
 20
-611.83451356
 30
0.0
  0
VERTEX
  5
2EA
100
AcDbEntity
  8
0
100
AcDbVertex
100
AcDb2dVertex
 10
1660.66984858
 20
-676.71676455
 30
0.0
  0
SEQEND
  5
2EB
100
AcDbEntity
  8
0
  0
LINE
  5
2EC
100
AcDbEntity
  8
0
100
AcDbLine
 10
1446.78334543
 20
-580.29507846
 30
0.0
 11
1519.96889728
 21
-515.75148854
 31
0.0
  0
LINE
  5
2ED
100
AcDbEntity
  8
0
100
AcDbLine
 10
1588.19140351
 20
-740.63674491
 30
0.0
 11
1446.78334543
 21
-580.29507846
 31
0.0
  0
LINE
  5
2EE
100
AcDbEntity
  8
0
100
AcDbLine
 10
953.20555383
 20
-518.11012183
 30
0.0
 11
1446.78334543
 21
-580.29507846
 31
0.0
  0
ENDBLK
  5
2EF
100
AcDbEntity
  8
0
100
AcDbBlockEnd
  0
BLOCK
  5
2F0
100
AcDbEntity
  8
0
100
AcDbBlockBegin
  2
ANSCHLUßFLANSCH_00048
 70
    64
 10
0.0
 20
0.0
 30
0.0
  3
ANSCHLUßFLANSCH_00048
  0
INSERT
  5
2F1
100
AcDbEntity
  8
0
100
AcDbBlockReference
  2
_ANSCHLUßFLANSCH_00049
 10
1044.98381176
 20
-730.53036955
 30
0.0
  0
ENDBLK
  5
2F2
100
AcDbEntity
  8
0
100
AcDbBlockEnd
  0
BLOCK
  5
2F3
100
AcDbEntity
  8
0
100
AcDbBlockBegin
  2
_ANSCHLUßFLANSCH_00049
 70
    64
 10
1044.98381176
 20
-730.53036955
 30
0.0
  3
_ANSCHLUßFLANSCH_00049
  0
ELLIPSE
  5
2F4
100
AcDbEntity
  8
0
100
AcDbEllipse
 10
1047.96028199
 20
-733.90536955
 30
0.0
 11
2.97647022
 21
-3.37500000
 31
0.0
 40
0.88191710
 41
3.14159265
 42
0.00000000
  0
ELLIPSE
  5
2F5
100
AcDbEntity
  8
0
100
AcDbEllipse
 10
1047.96028199
 20
-733.90536955
 30
0.0
 11
2.97647022
 21
-3.37500000
 31
0.0
 40
0.88191710
 41
0.00000000
 42
3.14159265
  0
ELLIPSE
  5
2F6
100
AcDbEntity
  8
0
100
AcDbEllipse
 10
1053.26358285
 20
-729.22829782
 30
0.0
 11
2.97647022
 21
-3.37500000
 31
0.0
 40
0.88191710
 41
4.24085123
 42
5.18392673
  0
ELLIPSE
  5
2F7
100
AcDbEntity
  8
0
100
AcDbEllipse
 10
1022.26847022
 20
-756.56341778
 30
0.0
 11
2.97647022
 21
-3.37500000
 31
0.0
 40
0.88191710
 41
3.14159265
 42
6.28318531
  0
ELLIPSE
  5
2F8
100
AcDbEntity
  8
0
100
AcDbEllipse
 10
1022.26847022
 20
-756.56341778
 30
0.0
 11
2.97647022
 21
-3.37500000
 31
0.0
 40
0.88191710
 41
0.00000000
 42
3.14159265
  0
ELLIPSE
  5
2F9
100
AcDbEntity
  8
0
100
AcDbEllipse
 10
1027.57177108
 20
-751.88634604
 30
0.0
 11
2.97647022
 21
-3.37500000
 31
0.0
 40
0.88191710
 41
4.24085123
 42
5.18392673
  0
ELLIPSE
  5
2FA
100
AcDbEntity
  8
0
100
AcDbEllipse
 10
1022.26847022
 20
-793.18435389
 30
0.0
 11
2.97647022
 21
-3.37500000
 31
0.0
 40
0.88191710
 41
3.14159265
 42
0.0
  0
ELLIPSE
  5
2FB
100
AcDbEntity
  8
0
100
AcDbEllipse
 10
1022.26847022
 20
-793.18435389
 30
0.0
 11
2.97647022
 21
-3.37500000
 31
0.0
 40
0.88191710
 41
0.0
 42
3.14159265
  0
ELLIPSE
  5
2FC
100
AcDbEntity
  8
0
100
AcDbEllipse
 10
1027.57177108
 20
-788.50728215
 30
0.0
 11
2.97647022
 21
-3.37500000
 31
0.0
 40
0.88191710
 41
4.24085123
 42
5.18392673
  0
ELLIPSE
  5
2FD
100
AcDbEntity
  8
0
100
AcDbEllipse
 10
1047.96028199
 20
-822.31613018
 30
0.0
 11
2.97647022
 21
-3.37500000
 31
0.0
 40
0.88191710
 41
3.14159265
 42
6.28318531
  0
ELLIPSE
  5
2FE
100
AcDbEntity
  8
0
100
AcDbEllipse
 10
1047.96028199
 20
-822.31613018
 30
0.0
 11
2.97647022
 21
-3.37500000
 31
0.0
 40
0.88191710
 41
0.00000000
 42
3.14159265
  0
ELLIPSE
  5
2FF
100
AcDbEntity
  8
0
100
AcDbEllipse
 10
1053.26358285
 20
-817.63905844
 30
0.0
 11
2.97647022
 21
-3.37500000
 31
0.0
 40
0.88191710
 41
4.24085123
 42
5.18392673
  0
ELLIPSE
  5
300
100
AcDbEntity
  8
0
100
AcDbEllipse
 10
1084.29399064
 20
-826.89374719
 30
0.0
 11
2.97647022
 21
-3.37500000
 31
0.0
 40
0.88191710
 41
3.14159265
 42
0.0
  0
ELLIPSE
  5
301
100
AcDbEntity
  8
0
100
AcDbEllipse
 10
1084.29399064
 20
-826.89374719
 30
0.0
 11
2.97647022
 21
-3.37500000
 31
0.0
 40
0.88191710
 41
0.0
 42
3.14159265
  0
ELLIPSE
  5
302
100
AcDbEntity
  8
0
100
AcDbEllipse
 10
1089.59729150
 20
-822.21667546
 30
0.0
 11
2.97647022
 21
-3.37500000
 31
0.0
 40
0.88191710
 41
4.24085123
 42
5.18392673
  0
ELLIPSE
  5
303
100
AcDbEntity
  8
0
100
AcDbEllipse
 10
1109.98580241
 20
-804.23569897
 30
0.0
 11
2.97647022
 21
-3.37500000
 31
0.0
 40
0.88191710
 41
3.14159265
 42
0.00000000
  0
ELLIPSE
  5
304
100
AcDbEntity
  8
0
100
AcDbEllipse
 10
1109.98580241
 20
-804.23569897
 30
0.0
 11
2.97647022
 21
-3.37500000
 31
0.0
 40
0.88191710
 41
6.28318531
 42
3.14159265
  0
ELLIPSE
  5
305
100
AcDbEntity
  8
0
100
AcDbEllipse
 10
1115.28910327
 20
-799.55862723
 30
0.0
 11
2.97647022
 21
-3.37500000
 31
0.0
 40
0.88191710
 41
4.24085123
 42
5.18392673
  0
ELLIPSE
  5
306
100
AcDbEntity
  8
0
100
AcDbEllipse
 10
1109.98580241
 20
-767.61476286
 30
0.0
 11
2.97647022
 21
-3.37500000
 31
0.0
 40
0.88191710
 41
3.14159265
 42
0.0
  0
ELLIPSE
  5
307
100
AcDbEntity
  8
0
100
AcDbEllipse
 10
1109.98580241
 20
-767.61476286
 30
0.0
 11
2.97647022
 21
-3.37500000
 31
0.0
 40
0.88191710
 41
0.0
 42
3.14159265
  0
ELLIPSE
  5
308
100
AcDbEntity
  8
0
100
AcDbEllipse
 10
1115.28910327
 20
-762.93769112
 30
0.0
 11
2.97647022
 21
-3.37500000
 31
0.0
 40
0.88191710
 41
4.24085123
 42
5.18392673
  0
ELLIPSE
  5
309
100
AcDbEntity
  8
0
100
AcDbEllipse
 10
1084.29399064
 20
-738.48298657
 30
0.0
 11
2.97647022
 21
-3.37500000
 31
0.0
 40
0.88191710
 41
3.14159265
 42
0.00000000
  0
ELLIPSE
  5
30A
100
AcDbEntity
  8
0
100
AcDbEllipse
 10
1084.29399064
 20
-738.48298657
 30
0.0
 11
2.97647022
 21
-3.37500000
 31
0.0
 40
0.88191710
 41
6.28318531
 42
3.14159265
  0
ELLIPSE
  5
30B
100
AcDbEntity
  8
0
100
AcDbEllipse
 10
1089.59729150
 20
-733.80591483
 30
0.0
 11
2.97647022
 21
-3.37500000
 31
0.0
 40
0.88191710
 41
4.24085123
 42
5.18392673
  0
ELLIPSE
  5
30C
100
AcDbEntity
  8
0
100
AcDbEllipse
 10
1066.12713631
 20
-780.39955837
 30
0.0
 11
39.68626967
 21
-45.00000000
 31
0.0
 40
0.88191710
 41
6.28318531
 42
3.14159265
  0
LINE
  5
30D
100
AcDbEntity
  8
0
100
AcDbLine
 10
1111.11670684
 20
-820.72248664
 30
0.0
 11
1105.81340598
 21
-825.39955837
 31
0.0
  0
ELLIPSE
  5
30E
100
AcDbEntity
  8
0
100
AcDbEllipse
 10
1071.43043717
 20
-775.72248664
 30
0.0
 11
39.68626967
 21
-45.00000000
 31
0.0
 40
0.88191710
 41
6.28318531
 42
1.17914101
  0
ELLIPSE
  5
30F
100
AcDbEntity
  8
0
100
AcDbEllipse
 10
1071.43043717
 20
-775.72248664
 30
0.0
 11
39.68626967
 21
-45.00000000
 31
0.0
 40
0.88191710
 41
1.96245164
 42
3.14159265
  0
LINE
  5
310
100
AcDbEntity
  8
0
100
AcDbLine
 10
1031.74416751
 20
-730.72248664
 30
0.0
 11
1026.44086665
 21
-735.39955837
 31
0.0
  0
ELLIPSE
  5
311
100
AcDbEntity
  8
0
100
AcDbEllipse
 10
1066.12713631
 20
-780.39955837
 30
0.0
 11
39.68626967
 21
-45.00000000
 31
0.0
 40
0.88191710
 41
3.14159265
 42
0.00000000
  0
ENDBLK
  5
312
100
AcDbEntity
  8
0
100
AcDbBlockEnd
  0
BLOCK
  5
313
100
AcDbEntity
  8
0
100
AcDbBlockBegin
  2
ANS3D06_00050
 70
    64
 10
0.0
 20
0.0
 30
0.0
  3
ANS3D06_00050
  0
INSERT
  5
314
100
AcDbEntity
  8
0
100
AcDbBlockReference
  2
FIG3D06_00051
 10
0.0
 20
0.0
 30
0.0
  0
ENDBLK
  5
315
100
AcDbEntity
  8
0
100
AcDbBlockEnd
  0
BLOCK
  5
316
100
AcDbEntity
  8
0
100
AcDbBlockBegin
  2
FIG3D06_00051
 70
    64
 10
0.0
 20
0.0
 30
0.0
  3
FIG3D06_00051
  0
INSERT
  5
317
100
AcDbEntity
  8
0
100
AcDbBlockReference
  2
JR20_00052
 10
0.0
 20
0.0
 30
0.0
  0
ENDBLK
  5
318
100
AcDbEntity
  8
0
100
AcDbBlockEnd
  0
BLOCK
  5
319
100
AcDbEntity
  8
0
100
AcDbBlockBegin
  2
JR20_00052
 70
    64
 10
0.0
 20
0.0
 30
0.0
  3
JR20_00052
  0
INSERT
  5
31A
100
AcDbEntity
  8
0
100
AcDbBlockReference
  2
GEHÄUSE_00053
 10
0.0
 20
0.0
 30
0.0
  0
INSERT
  5
31B
100
AcDbEntity
  8
0
100
AcDbBlockReference
  2
WELLE_00055
 10
0.0
 20
0.0
 30
0.0
  0
INSERT
  5
31C
100
AcDbEntity
  8
0
100
AcDbBlockReference
  2
FLIEHGEWICHT_00064
 10
0.0
 20
0.0
 30
0.0
  0
INSERT
  5
31D
100
AcDbEntity
  8
0
100
AcDbBlockReference
  2
SCHUTZHAUBE_00075
 10
0.0
 20
0.0
 30
0.0
  0
INSERT
  5
31E
100
AcDbEntity
  8
0
100
AcDbBlockReference
  2
ANSCHLUßFLANSCH_00080
 10
0.0
 20
0.0
 30
0.0
  0
ENDBLK
  5
31F
100
AcDbEntity
  8
0
100
AcDbBlockEnd
  0
BLOCK
  5
320
100
AcDbEntity
  8
0
100
AcDbBlockBegin
  2
GEHÄUSE_00053
 70
    64
 10
0.0
 20
0.0
 30
0.0
  3
GEHÄUSE_00053
  0
INSERT
  5
321
100
AcDbEntity
  8
0
100
AcDbBlockReference
  2
_GEHÄUSE_00054
 10
490.74588175
 20
758.99756970
 30
0.0
  0
ENDBLK
  5
322
100
AcDbEntity
  8
0
100
AcDbBlockEnd
  0
BLOCK
  5
323
100
AcDbEntity
  8
0
100
AcDbBlockBegin
  2
_GEHÄUSE_00054
 70
    64
 10
490.74588175
 20
758.99756970
 30
0.0
  3
_GEHÄUSE_00054
  0
LINE
  5
324
100
AcDbEntity
  8
0
100
AcDbLine
 10
490.74588175
 20
758.99756970
 30
0.0
 11
490.74588175
 21
832.99756970
 31
0.0
  0
LINE
  5
325
100
AcDbEntity
  8
0
100
AcDbLine
 10
-94.25411825
 20
832.99756970
 30
0.0
 11
-94.25411825
 21
758.99756970
 31
0.0
  0
CIRCLE
  5
326
100
AcDbEntity
  8
0
100
AcDbCircle
 10
418.24588175
 20
700.99756970
 30
0.0
 40
13.00000000
  0
CIRCLE
  5
327
100
AcDbEntity
  8
0
100
AcDbCircle
 10
-21.75411825
 20
700.99756970
 30
0.0
 40
13.00000000
  0
CIRCLE
  5
328
100
AcDbEntity
  8
0
100
AcDbCircle
 10
88.24588175
 20
700.99756970
 30
0.0
 40
13.00000000
  0
CIRCLE
  5
329
100
AcDbEntity
  8
0
100
AcDbCircle
 10
308.24588175
 20
700.99756970
 30
0.0
 40
13.00000000
  0
POLYLINE
  5
32A
100
AcDbEntity
  8
0
100
AcDb2dPolyline
 66
     1
  0
VERTEX
  5
32B
100
AcDbEntity
  8
0
100
AcDbVertex
100
AcDb2dVertex
 10
-94.25411825
 20
758.99756970
 30
0.0
  0
VERTEX
  5
32C
100
AcDbEntity
  8
0
100
AcDbVertex
100
AcDb2dVertex
 10
490.74588175
 20
758.99756970
 30
0.0
  0
VERTEX
  5
32D
100
AcDbEntity
  8
0
100
AcDbVertex
100
AcDb2dVertex
 10
490.74588175
 20
670.99756970
 30
0.0
  0
VERTEX
  5
32E
100
AcDbEntity
  8
0
100
AcDbVertex
100
AcDb2dVertex
 10
-94.25411825
 20
670.99756970
 30
0.0
  0
VERTEX
  5
32F
100
AcDbEntity
  8
0
100
AcDbVertex
100
AcDb2dVertex
 10
-94.25411825
 20
758.99756970
 30
0.0
  0
SEQEND
  5
330
100
AcDbEntity
  8
0
  0
CIRCLE
  5
331
100
AcDbEntity
  8
0
100
AcDbCircle
 10
418.24588175
 20
890.99756970
 30
0.0
 40
13.00000000
  0
CIRCLE
  5
332
100
AcDbEntity
  8
0
100
AcDbCircle
 10
308.24588175
 20
890.99756970
 30
0.0
 40
13.00000000
  0
CIRCLE
  5
333
100
AcDbEntity
  8
0
100
AcDbCircle
 10
-21.75411825
 20
890.99756970
 30
0.0
 40
13.00000000
  0
CIRCLE
  5
334
100
AcDbEntity
  8
0
100
AcDbCircle
 10
88.24588175
 20
890.99756970
 30
0.0
 40
13.00000000
  0
POLYLINE
  5
335
100
AcDbEntity
  8
0
100
AcDb2dPolyline
 66
     1
  0
VERTEX
  5
336
100
AcDbEntity
  8
0
100
AcDbVertex
100
AcDb2dVertex
 10
490.74588175
 20
920.99756970
 30
0.0
  0
VERTEX
  5
337
100
AcDbEntity
  8
0
100
AcDbVertex
100
AcDb2dVertex
 10
490.74588175
 20
832.99756970
 30
0.0
  0
VERTEX
  5
338
100
AcDbEntity
  8
0
100
AcDbVertex
100
AcDb2dVertex
 10
-94.25411825
 20
832.99756970
 30
0.0
  0
VERTEX
  5
339
100
AcDbEntity
  8
0
100
AcDbVertex
100
AcDb2dVertex
 10
-94.25411825
 20
920.99756970
 30
0.0
  0
VERTEX
  5
33A
100
AcDbEntity
  8
0
100
AcDbVertex
100
AcDb2dVertex
 10
490.74588175
 20
920.99756970
 30
0.0
  0
SEQEND
  5
33B
100
AcDbEntity
  8
0
  0
ENDBLK
  5
33C
100
AcDbEntity
  8
0
100
AcDbBlockEnd
  0
BLOCK
  5
33D
100
AcDbEntity
  8
0
100
AcDbBlockBegin
  2
WELLE_00055
 70
    64
 10
0.0
 20
0.0
 30
0.0
  3
WELLE_00055
  0
INSERT
  5
33E
100
AcDbEntity
  8
0
100
AcDbBlockReference
  2
WELLE_00056
 10
0.0
 20
0.0
 30
0.0
  0
INSERT
  5
33F
100
AcDbEntity
  8
0
100
AcDbBlockReference
  2
WELLE_00058
 10
0.0
 20
0.0
 30
0.0
  0
INSERT
  5
340
100
AcDbEntity
  8
0
100
AcDbBlockReference
  2
WELLE_00060
 10
0.0
 20
0.0
 30
0.0
  0
INSERT
  5
341
100
AcDbEntity
  8
0
100
AcDbBlockReference
  2
WELLE_00062
 10
0.0
 20
0.0
 30
0.0
  0
ENDBLK
  5
342
100
AcDbEntity
  8
0
100
AcDbBlockEnd
  0
BLOCK
  5
343
100
AcDbEntity
  8
0
100
AcDbBlockBegin
  2
WELLE_00056
 70
    64
 10
0.0
 20
0.0
 30
0.0
  3
WELLE_00056
  0
INSERT
  5
344
100
AcDbEntity
  8
0
100
AcDbBlockReference
  2
_WELLE_00057
 10
313.24588175
 20
670.99756970
 30
0.0
  0
ENDBLK
  5
345
100
AcDbEntity
  8
0
100
AcDbBlockEnd
  0
BLOCK
  5
346
100
AcDbEntity
  8
0
100
AcDbBlockBegin
  2
_WELLE_00057
 70
    64
 10
313.24588175
 20
670.99756970
 30
0.0
  3
_WELLE_00057
  0
LINE
  5
347
100
AcDbEntity
  8
0
100
AcDbLine
 10
313.24588175
 20
670.99756970
 30
0.0
 11
373.24588175
 21
670.99756970
 31
0.0
  0
LINE
  5
348
100
AcDbEntity
  8
0
100
AcDbLine
 10
373.24588175
 20
566.49756970
 30
0.0
 11
373.24588175
 21
670.99756970
 31
0.0
  0
LINE
  5
349
100
AcDbEntity
  8
0
100
AcDbLine
 10
373.24588175
 20
485.99756970
 30
0.0
 11
373.24588175
 21
508.99756970
 31
0.0
  0
LINE
  5
34A
100
AcDbEntity
  8
0
100
AcDbLine
 10
373.24588175
 20
485.99756970
 30
0.0
 11
313.24588175
 21
485.99756970
 31
0.0
  0
LINE
  5
34B
100
AcDbEntity
  8
0
100
AcDbLine
 10
313.24588175
 20
566.49756970
 30
0.0
 11
313.24588175
 21
670.99756970
 31
0.0
  0
LINE
  5
34C
100
AcDbEntity
  8
0
100
AcDbLine
 10
313.24588175
 20
485.99756970
 30
0.0
 11
313.24588175
 21
508.99756970
 31
0.0
  0
ENDBLK
  5
34D
100
AcDbEntity
  8
0
100
AcDbBlockEnd
  0
BLOCK
  5
34E
100
AcDbEntity
  8
0
100
AcDbBlockBegin
  2
WELLE_00058
 70
    64
 10
0.0
 20
0.0
 30
0.0
  3
WELLE_00058
  0
INSERT
  5
34F
100
AcDbEntity
  8
0
100
AcDbBlockReference
  2
_WELLE_00059
 10
23.24588175
 20
670.99756970
 30
0.0
  0
ENDBLK
  5
350
100
AcDbEntity
  8
0
100
AcDbBlockEnd
  0
BLOCK
  5
351
100
AcDbEntity
  8
0
100
AcDbBlockBegin
  2
_WELLE_00059
 70
    64
 10
23.24588175
 20
670.99756970
 30
0.0
  3
_WELLE_00059
  0
LINE
  5
352
100
AcDbEntity
  8
0
100
AcDbLine
 10
23.24588175
 20
670.99756970
 30
0.0
 11
83.24588175
 21
670.99756970
 31
0.0
  0
LINE
  5
353
100
AcDbEntity
  8
0
100
AcDbLine
 10
83.24588175
 20
646.99756970
 30
0.0
 11
83.24588175
 21
670.99756970
 31
0.0
  0
LINE
  5
354
100
AcDbEntity
  8
0
100
AcDbLine
 10
83.24588175
 20
485.99756970
 30
0.0
 11
83.24588175
 21
589.49756970
 31
0.0
  0
LINE
  5
355
100
AcDbEntity
  8
0
100
AcDbLine
 10
83.24588175
 20
485.99756970
 30
0.0
 11
23.24588175
 21
485.99756970
 31
0.0
  0
LINE
  5
356
100
AcDbEntity
  8
0
100
AcDbLine
 10
23.24588175
 20
646.99756970
 30
0.0
 11
23.24588175
 21
670.99756970
 31
0.0
  0
LINE
  5
357
100
AcDbEntity
  8
0
100
AcDbLine
 10
23.24588175
 20
485.99756970
 30
0.0
 11
23.24588175
 21
589.49756970
 31
0.0
  0
ENDBLK
  5
358
100
AcDbEntity
  8
0
100
AcDbBlockEnd
  0
BLOCK
  5
359
100
AcDbEntity
  8
0
100
AcDbBlockBegin
  2
WELLE_00060
 70
    64
 10
0.0
 20
0.0
 30
0.0
  3
WELLE_00060
  0
INSERT
  5
35A
100
AcDbEntity
  8
0
100
AcDbBlockReference
  2
_WELLE_00061
 10
373.24588175
 20
1105.99756970
 30
0.0
  0
ENDBLK
  5
35B
100
AcDbEntity
  8
0
100
AcDbBlockEnd
  0
BLOCK
  5
35C
100
AcDbEntity
  8
0
100
AcDbBlockBegin
  2
_WELLE_00061
 70
    64
 10
373.24588175
 20
1105.99756970
 30
0.0
  3
_WELLE_00061
  0
LINE
  5
35D
100
AcDbEntity
  8
0
100
AcDbLine
 10
373.24588175
 20
1105.99756970
 30
0.0
 11
313.24588175
 21
1105.99756970
 31
0.0
  0
LINE
  5
35E
100
AcDbEntity
  8
0
100
AcDbLine
 10
313.24588175
 20
1082.99756970
 30
0.0
 11
313.24588175
 21
1105.99756970
 31
0.0
  0
LINE
  5
35F
100
AcDbEntity
  8
0
100
AcDbLine
 10
313.24588175
 20
920.99756970
 30
0.0
 11
313.24588175
 21
1025.49756970
 31
0.0
  0
LINE
  5
360
100
AcDbEntity
  8
0
100
AcDbLine
 10
373.24588175
 20
920.99756970
 30
0.0
 11
313.24588175
 21
920.99756970
 31
0.0
  0
LINE
  5
361
100
AcDbEntity
  8
0
100
AcDbLine
 10
373.24588175
 20
1082.99756970
 30
0.0
 11
373.24588175
 21
1105.99756970
 31
0.0
  0
LINE
  5
362
100
AcDbEntity
  8
0
100
AcDbLine
 10
373.24588175
 20
920.99756970
 30
0.0
 11
373.24588175
 21
1025.49756970
 31
0.0
  0
ENDBLK
  5
363
100
AcDbEntity
  8
0
100
AcDbBlockEnd
  0
BLOCK
  5
364
100
AcDbEntity
  8
0
100
AcDbBlockBegin
  2
WELLE_00062
 70
    64
 10
0.0
 20
0.0
 30
0.0
  3
WELLE_00062
  0
INSERT
  5
365
100
AcDbEntity
  8
0
100
AcDbBlockReference
  2
_WELLE_00063
 10
83.24588175
 20
1105.99756970
 30
0.0
  0
ENDBLK
  5
366
100
AcDbEntity
  8
0
100
AcDbBlockEnd
  0
BLOCK
  5
367
100
AcDbEntity
  8
0
100
AcDbBlockBegin
  2
_WELLE_00063
 70
    64
 10
83.24588175
 20
1105.99756970
 30
0.0
  3
_WELLE_00063
  0
LINE
  5
368
100
AcDbEntity
  8
0
100
AcDbLine
 10
83.24588175
 20
1105.99756970
 30
0.0
 11
23.24588175
 21
1105.99756970
 31
0.0
  0
LINE
  5
369
100
AcDbEntity
  8
0
100
AcDbLine
 10
23.24588175
 20
1002.49756970
 30
0.0
 11
23.24588175
 21
1105.99756970
 31
0.0
  0
LINE
  5
36A
100
AcDbEntity
  8
0
100
AcDbLine
 10
23.24588175
 20
920.99756970
 30
0.0
 11
23.24588175
 21
944.99756970
 31
0.0
  0
LINE
  5
36B
100
AcDbEntity
  8
0
100
AcDbLine
 10
83.24588175
 20
920.99756970
 30
0.0
 11
23.24588175
 21
920.99756970
 31
0.0
  0
LINE
  5
36C
100
AcDbEntity
  8
0
100
AcDbLine
 10
83.24588175
 20
1002.49756970
 30
0.0
 11
83.24588175
 21
1105.99756970
 31
0.0
  0
LINE
  5
36D
100
AcDbEntity
  8
0
100
AcDbLine
 10
83.24588175
 20
920.99756970
 30
0.0
 11
83.24588175
 21
944.99756970
 31
0.0
  0
ENDBLK
  5
36E
100
AcDbEntity
  8
0
100
AcDbBlockEnd
  0
BLOCK
  5
36F
100
AcDbEntity
  8
0
100
AcDbBlockBegin
  2
FLIEHGEWICHT_00064
 70
    64
 10
0.0
 20
0.0
 30
0.0
  3
FLIEHGEWICHT_00064
  0
INSERT
  5
370
100
AcDbEntity
  8
0
100
AcDbBlockReference
  2
FLIEHGEWICHT_00065
 10
0.0
 20
0.0
 30
0.0
  0
INSERT
  5
371
100
AcDbEntity
  8
0
100
AcDbBlockReference
  2
FLIEHGEWICHT_00070
 10
0.0
 20
0.0
 30
0.0
  0
ENDBLK
  5
372
100
AcDbEntity
  8
0
100
AcDbBlockEnd
  0
BLOCK
  5
373
100
AcDbEntity
  8
0
100
AcDbBlockBegin
  2
FLIEHGEWICHT_00065
 70
    64
 10
0.0
 20
0.0
 30
0.0
  3
FLIEHGEWICHT_00065
  0
INSERT
  5
374
100
AcDbEntity
  8
0
100
AcDbBlockReference
  2
FLIEHGEWICHT_00066
 10
0.0
 20
0.0
 30
0.0
  0
INSERT
  5
375
100
AcDbEntity
  8
0
100
AcDbBlockReference
  2
FLIEHGEWICHT_00068
 10
0.0
 20
0.0
 30
0.0
  0
ENDBLK
  5
376
100
AcDbEntity
  8
0
100
AcDbBlockEnd
  0
BLOCK
  5
377
100
AcDbEntity
  8
0
100
AcDbBlockBegin
  2
FLIEHGEWICHT_00066
 70
    64
 10
0.0
 20
0.0
 30
0.0
  3
FLIEHGEWICHT_00066
  0
INSERT
  5
378
100
AcDbEntity
  8
0
100
AcDbBlockReference
  2
_FLIEHGEWICHT_00067
 10
108.16412933
 20
1002.49756970
 30
0.0
  0
ENDBLK
  5
379
100
AcDbEntity
  8
0
100
AcDbBlockEnd
  0
BLOCK
  5
37A
100
AcDbEntity
  8
0
100
AcDbBlockBegin
  2
_FLIEHGEWICHT_00067
 70
    64
 10
108.16412933
 20
1002.49756970
 30
0.0
  3
_FLIEHGEWICHT_00067
  0
LINE
  5
37B
100
AcDbEntity
  8
0
100
AcDbLine
 10
108.16412933
 20
1002.49756970
 30
0.0
 11
138.24588175
 21
1002.49756970
 31
0.0
  0
LINE
  5
37C
100
AcDbEntity
  8
0
100
AcDbLine
 10
138.24588175
 20
944.99756970
 30
0.0
 11
138.24588175
 21
1002.49756970
 31
0.0
  0
LINE
  5
37D
100
AcDbEntity
  8
0
100
AcDbLine
 10
108.16412933
 20
944.99756970
 30
0.0
 11
138.24588175
 21
944.99756970
 31
0.0
  0
LINE
  5
37E
100
AcDbEntity
  8
0
100
AcDbLine
 10
108.16412933
 20
944.99756970
 30
0.0
 11
108.16412933
 21
1002.49756970
 31
0.0
  0
LINE
  5
37F
100
AcDbEntity
  8
0
100
AcDbLine
 10
41.70784526
 20
1002.49756970
 30
0.0
 11
108.16412933
 21
1002.49756970
 31
0.0
  0
LINE
  5
380
100
AcDbEntity
  8
0
100
AcDbLine
 10
41.70784526
 20
944.99756970
 30
0.0
 11
41.70784526
 21
1002.49756970
 31
0.0
  0
LINE
  5
381
100
AcDbEntity
  8
0
100
AcDbLine
 10
41.70784526
 20
944.99756970
 30
0.0
 11
108.16412933
 21
944.99756970
 31
0.0
  0
LINE
  5
382
100
AcDbEntity
  8
0
100
AcDbLine
 10
-171.75411825
 20
944.99756970
 30
0.0
 11
41.70784526
 21
944.99756970
 31
0.0
  0
POLYLINE
  5
383
100
AcDbEntity
  8
0
100
AcDb2dPolyline
 66
     1
  0
VERTEX
  5
384
100
AcDbEntity
  8
0
100
AcDbVertex
100
AcDb2dVertex
 10
-171.75411825
 20
944.99756970
 30
0.0
  0
VERTEX
  5
385
100
AcDbEntity
  8
0
100
AcDbVertex
100
AcDb2dVertex
 10
-171.75411825
 20
1002.49756970
 30
0.0
  0
VERTEX
  5
386
100
AcDbEntity
  8
0
100
AcDbVertex
100
AcDb2dVertex
 10
41.70784526
 20
1002.49756970
 30
0.0
  0
SEQEND
  5
387
100
AcDbEntity
  8
0
  0
ENDBLK
  5
388
100
AcDbEntity
  8
0
100
AcDbBlockEnd
  0
BLOCK
  5
389
100
AcDbEntity
  8
0
100
AcDbBlockBegin
  2
FLIEHGEWICHT_00068
 70
    64
 10
0.0
 20
0.0
 30
0.0
  3
FLIEHGEWICHT_00068
  0
INSERT
  5
38A
100
AcDbEntity
  8
0
100
AcDbBlockReference
  2
_FLIEHGEWICHT_00069
 10
288.32763418
 20
1025.49756970
 30
0.0
  0
ENDBLK
  5
38B
100
AcDbEntity
  8
0
100
AcDbBlockEnd
  0
BLOCK
  5
38C
100
AcDbEntity
  8
0
100
AcDbBlockBegin
  2
_FLIEHGEWICHT_00069
 70
    64
 10
288.32763418
 20
1025.49756970
 30
0.0
  3
_FLIEHGEWICHT_00069
  0
POLYLINE
  5
38D
100
AcDbEntity
  8
0
100
AcDb2dPolyline
 66
     1
  0
VERTEX
  5
38E
100
AcDbEntity
  8
0
100
AcDbVertex
100
AcDb2dVertex
 10
288.32763418
 20
1025.49756970
 30
0.0
  0
VERTEX
  5
38F
100
AcDbEntity
  8
0
100
AcDbVertex
100
AcDb2dVertex
 10
288.32763418
 20
1082.99756970
 30
0.0
  0
VERTEX
  5
390
100
AcDbEntity
  8
0
100
AcDbVertex
100
AcDb2dVertex
 10
354.78391824
 20
1082.99756970
 30
0.0
  0
SEQEND
  5
391
100
AcDbEntity
  8
0
  0
LINE
  5
392
100
AcDbEntity
  8
0
100
AcDbLine
 10
354.78391824
 20
1025.49756970
 30
0.0
 11
354.78391824
 21
1082.99756970
 31
0.0
  0
LINE
  5
393
100
AcDbEntity
  8
0
100
AcDbLine
 10
288.32763418
 20
1025.49756970
 30
0.0
 11
354.78391824
 21
1025.49756970
 31
0.0
  0
LINE
  5
394
100
AcDbEntity
  8
0
100
AcDbLine
 10
258.24588175
 20
1025.49756970
 30
0.0
 11
288.32763418
 21
1025.49756970
 31
0.0
  0
POLYLINE
  5
395
100
AcDbEntity
  8
0
100
AcDb2dPolyline
 66
     1
  0
VERTEX
  5
396
100
AcDbEntity
  8
0
100
AcDbVertex
100
AcDb2dVertex
 10
258.24588175
 20
1025.49756970
 30
0.0
  0
VERTEX
  5
397
100
AcDbEntity
  8
0
100
AcDbVertex
100
AcDb2dVertex
 10
258.24588175
 20
1082.99756970
 30
0.0
  0
VERTEX
  5
398
100
AcDbEntity
  8
0
100
AcDbVertex
100
AcDb2dVertex
 10
288.32763418
 20
1082.99756970
 30
0.0
  0
SEQEND
  5
399
100
AcDbEntity
  8
0
  0
POLYLINE
  5
39A
100
AcDbEntity
  8
0
100
AcDb2dPolyline
 66
     1
  0
VERTEX
  5
39B
100
AcDbEntity
  8
0
100
AcDbVertex
100
AcDb2dVertex
 10
354.78391824
 20
1025.49756970
 30
0.0
  0
VERTEX
  5
39C
100
AcDbEntity
  8
0
100
AcDbVertex
100
AcDb2dVertex
 10
568.24588175
 20
1025.49756970
 30
0.0
  0
VERTEX
  5
39D
100
AcDbEntity
  8
0
100
AcDbVertex
100
AcDb2dVertex
 10
568.24588175
 20
1082.99756970
 30
0.0
  0
SEQEND
  5
39E
100
AcDbEntity
  8
0
  0
LINE
  5
39F
100
AcDbEntity
  8
0
100
AcDbLine
 10
354.78391824
 20
1082.99756970
 30
0.0
 11
568.24588175
 21
1082.99756970
 31
0.0
  0
ENDBLK
  5
3A0
100
AcDbEntity
  8
0
100
AcDbBlockEnd
  0
BLOCK
  5
3A1
100
AcDbEntity
  8
0
100
AcDbBlockBegin
  2
FLIEHGEWICHT_00070
 70
    64
 10
0.0
 20
0.0
 30
0.0
  3
FLIEHGEWICHT_00070
  0
INSERT
  5
3A2
100
AcDbEntity
  8
0
100
AcDbBlockReference
  2
FLIEHGEWICHT_00071
 10
0.0
 20
0.0
 30
0.0
  0
INSERT
  5
3A3
100
AcDbEntity
  8
0
100
AcDbBlockReference
  2
FLIEHGEWICHT_00073
 10
0.0
 20
0.0
 30
0.0
  0
ENDBLK
  5
3A4
100
AcDbEntity
  8
0
100
AcDbBlockEnd
  0
BLOCK
  5
3A5
100
AcDbEntity
  8
0
100
AcDbBlockBegin
  2
FLIEHGEWICHT_00071
 70
    64
 10
0.0
 20
0.0
 30
0.0
  3
FLIEHGEWICHT_00071
  0
INSERT
  5
3A6
100
AcDbEntity
  8
0
100
AcDbBlockReference
  2
_FLIEHGEWICHT_00072
 10
-171.75411825
 20
589.49756970
 30
0.0
  0
ENDBLK
  5
3A7
100
AcDbEntity
  8
0
100
AcDbBlockEnd
  0
BLOCK
  5
3A8
100
AcDbEntity
  8
0
100
AcDbBlockBegin
  2
_FLIEHGEWICHT_00072
 70
    64
 10
-171.75411825
 20
589.49756970
 30
0.0
  3
_FLIEHGEWICHT_00072
  0
LINE
  5
3A9
100
AcDbEntity
  8
0
100
AcDbLine
 10
-171.75411825
 20
589.49756970
 30
0.0
 11
41.70784526
 21
589.49756970
 31
0.0
  0
LINE
  5
3AA
100
AcDbEntity
  8
0
100
AcDbLine
 10
41.70784526
 20
646.99756970
 30
0.0
 11
41.70784526
 21
589.49756970
 31
0.0
  0
LINE
  5
3AB
100
AcDbEntity
  8
0
100
AcDbLine
 10
-171.75411825
 20
646.99756970
 30
0.0
 11
41.70784526
 21
646.99756970
 31
0.0
  0
LINE
  5
3AC
100
AcDbEntity
  8
0
100
AcDbLine
 10
-171.75411825
 20
646.99756970
 30
0.0
 11
-171.75411825
 21
589.49756970
 31
0.0
  0
POLYLINE
  5
3AD
100
AcDbEntity
  8
0
100
AcDb2dPolyline
 66
     1
  0
VERTEX
  5
3AE
100
AcDbEntity
  8
0
100
AcDbVertex
100
AcDb2dVertex
 10
41.70784526
 20
646.99756970
 30
0.0
  0
VERTEX
  5
3AF
100
AcDbEntity
  8
0
100
AcDbVertex
100
AcDb2dVertex
 10
108.16412933
 20
646.99756970
 30
0.0
  0
VERTEX
  5
3B0
100
AcDbEntity
  8
0
100
AcDbVertex
100
AcDb2dVertex
 10
108.16412933
 20
589.49756970
 30
0.0
  0
SEQEND
  5
3B1
100
AcDbEntity
  8
0
  0
POLYLINE
  5
3B2
100
AcDbEntity
  8
0
100
AcDb2dPolyline
 66
     1
  0
VERTEX
  5
3B3
100
AcDbEntity
  8
0
100
AcDbVertex
100
AcDb2dVertex
 10
41.70784526
 20
589.49756970
 30
0.0
  0
VERTEX
  5
3B4
100
AcDbEntity
  8
0
100
AcDbVertex
100
AcDb2dVertex
 10
108.16412933
 20
589.49756970
 30
0.0
  0
VERTEX
  5
3B5
100
AcDbEntity
  8
0
100
AcDbVertex
100
AcDb2dVertex
 10
138.24588175
 20
589.49756970
 30
0.0
  0
SEQEND
  5
3B6
100
AcDbEntity
  8
0
  0
LINE
  5
3B7
100
AcDbEntity
  8
0
100
AcDbLine
 10
138.24588175
 20
646.99756970
 30
0.0
 11
138.24588175
 21
589.49756970
 31
0.0
  0
LINE
  5
3B8
100
AcDbEntity
  8
0
100
AcDbLine
 10
108.16412933
 20
646.99756970
 30
0.0
 11
138.24588175
 21
646.99756970
 31
0.0
  0
ENDBLK
  5
3B9
100
AcDbEntity
  8
0
100
AcDbBlockEnd
  0
BLOCK
  5
3BA
100
AcDbEntity
  8
0
100
AcDbBlockBegin
  2
FLIEHGEWICHT_00073
 70
    64
 10
0.0
 20
0.0
 30
0.0
  3
FLIEHGEWICHT_00073
  0
INSERT
  5
3BB
100
AcDbEntity
  8
0
100
AcDbBlockReference
  2
_FLIEHGEWICHT_00074
 10
258.24588175
 20
508.99756970
 30
0.0
  0
ENDBLK
  5
3BC
100
AcDbEntity
  8
0
100
AcDbBlockEnd
  0
BLOCK
  5
3BD
100
AcDbEntity
  8
0
100
AcDbBlockBegin
  2
_FLIEHGEWICHT_00074
 70
    64
 10
258.24588175
 20
508.99756970
 30
0.0
  3
_FLIEHGEWICHT_00074
  0
LINE
  5
3BE
100
AcDbEntity
  8
0
100
AcDbLine
 10
258.24588175
 20
508.99756970
 30
0.0
 11
288.32763418
 21
508.99756970
 31
0.0
  0
LINE
  5
3BF
100
AcDbEntity
  8
0
100
AcDbLine
 10
288.32763418
 20
566.49756970
 30
0.0
 11
288.32763418
 21
508.99756970
 31
0.0
  0
LINE
  5
3C0
100
AcDbEntity
  8
0
100
AcDbLine
 10
258.24588175
 20
566.49756970
 30
0.0
 11
288.32763418
 21
566.49756970
 31
0.0
  0
LINE
  5
3C1
100
AcDbEntity
  8
0
100
AcDbLine
 10
258.24588175
 20
566.49756970
 30
0.0
 11
258.24588175
 21
508.99756970
 31
0.0
  0
POLYLINE
  5
3C2
100
AcDbEntity
  8
0
100
AcDb2dPolyline
 66
     1
  0
VERTEX
  5
3C3
100
AcDbEntity
  8
0
100
AcDbVertex
100
AcDb2dVertex
 10
288.32763418
 20
566.49756970
 30
0.0
  0
VERTEX
  5
3C4
100
AcDbEntity
  8
0
100
AcDbVertex
100
AcDb2dVertex
 10
354.78391824
 20
566.49756970
 30
0.0
  0
VERTEX
  5
3C5
100
AcDbEntity
  8
0
100
AcDbVertex
100
AcDb2dVertex
 10
354.78391824
 20
508.99756970
 30
0.0
  0
SEQEND
  5
3C6
100
AcDbEntity
  8
0
  0
POLYLINE
  5
3C7
100
AcDbEntity
  8
0
100
AcDb2dPolyline
 66
     1
  0
VERTEX
  5
3C8
100
AcDbEntity
  8
0
100
AcDbVertex
100
AcDb2dVertex
 10
288.32763418
 20
508.99756970
 30
0.0
  0
VERTEX
  5
3C9
100
AcDbEntity
  8
0
100
AcDbVertex
100
AcDb2dVertex
 10
354.78391824
 20
508.99756970
 30
0.0
  0
VERTEX
  5
3CA
100
AcDbEntity
  8
0
100
AcDbVertex
100
AcDb2dVertex
 10
568.24588175
 20
508.99756970
 30
0.0
  0
SEQEND
  5
3CB
100
AcDbEntity
  8
0
  0
LINE
  5
3CC
100
AcDbEntity
  8
0
100
AcDbLine
 10
568.24588175
 20
566.49756970
 30
0.0
 11
568.24588175
 21
508.99756970
 31
0.0
  0
LINE
  5
3CD
100
AcDbEntity
  8
0
100
AcDbLine
 10
354.78391824
 20
566.49756970
 30
0.0
 11
568.24588175
 21
566.49756970
 31
0.0
  0
ENDBLK
  5
3CE
100
AcDbEntity
  8
0
100
AcDbBlockEnd
  0
BLOCK
  5
3CF
100
AcDbEntity
  8
0
100
AcDbBlockBegin
  2
SCHUTZHAUBE_00075
 70
    64
 10
0.0
 20
0.0
 30
0.0
  3
SCHUTZHAUBE_00075
  0
INSERT
  5
3D0
100
AcDbEntity
  8
0
100
AcDbBlockReference
  2
SCHUTZHAUBE_00076
 10
0.0
 20
0.0
 30
0.0
  0
INSERT
  5
3D1
100
AcDbEntity
  8
0
100
AcDbBlockReference
  2
SCHUTZHAUBE_00078
 10
0.0
 20
0.0
 30
0.0
  0
ENDBLK
  5
3D2
100
AcDbEntity
  8
0
100
AcDbBlockEnd
  0
BLOCK
  5
3D3
100
AcDbEntity
  8
0
100
AcDbBlockBegin
  2
SCHUTZHAUBE_00076
 70
    64
 10
0.0
 20
0.0
 30
0.0
  3
SCHUTZHAUBE_00076
  0
INSERT
  5
3D4
100
AcDbEntity
  8
0
100
AcDbBlockReference
  2
_SCHUTZHAUBE_00077
 10
-94.25411825
 20
670.99756970
 30
0.0
  0
ENDBLK
  5
3D5
100
AcDbEntity
  8
0
100
AcDbBlockEnd
  0
BLOCK
  5
3D6
100
AcDbEntity
  8
0
100
AcDbBlockBegin
  2
_SCHUTZHAUBE_00077
 70
    64
 10
-94.25411825
 20
670.99756970
 30
0.0
  3
_SCHUTZHAUBE_00077
  0
LINE
  5
3D7
100
AcDbEntity
  8
0
100
AcDbLine
 10
-94.25411825
 20
670.99756970
 30
0.0
 11
-152.75411825
 21
670.99756970
 31
0.0
  0
LINE
  5
3D8
100
AcDbEntity
  8
0
100
AcDbLine
 10
549.24588175
 20
670.99756970
 30
0.0
 11
490.74588175
 21
670.99756970
 31
0.0
  0
LINE
  5
3D9
100
AcDbEntity
  8
0
100
AcDbLine
 10
-155.58254537
 20
670.99756970
 30
0.0
 11
-155.58254537
 21
672.99756970
 31
0.0
  0
LINE
  5
3DA
100
AcDbEntity
  8
0
100
AcDbLine
 10
490.74588175
 20
672.99756970
 30
0.0
 11
552.07430888
 21
672.99756970
 31
0.0
  0
LINE
  5
3DB
100
AcDbEntity
  8
0
100
AcDbLine
 10
-155.58254537
 20
672.99756970
 30
0.0
 11
-94.25411825
 21
672.99756970
 31
0.0
  0
LINE
  5
3DC
100
AcDbEntity
  8
0
100
AcDbLine
 10
552.07430888
 20
672.99756970
 30
0.0
 11
552.07430888
 21
670.99756970
 31
0.0
  0
LINE
  5
3DD
100
AcDbEntity
  8
0
100
AcDbLine
 10
611.24588175
 20
670.99756970
 30
0.0
 11
549.24588175
 21
670.99756970
 31
0.0
  0
LINE
  5
3DE
100
AcDbEntity
  8
0
100
AcDbLine
 10
461.24588175
 20
566.49756970
 30
0.0
 11
461.24588175
 21
670.99756970
 31
0.0
  0
LINE
  5
3DF
100
AcDbEntity
  8
0
100
AcDbLine
 10
461.24588175
 20
467.99756970
 30
0.0
 11
461.24588175
 21
508.99756970
 31
0.0
  0
LINE
  5
3E0
100
AcDbEntity
  8
0
100
AcDbLine
 10
-64.75411825
 20
589.49756970
 30
0.0
 11
-64.75411825
 21
467.99756970
 31
0.0
  0
LINE
  5
3E1
100
AcDbEntity
  8
0
100
AcDbLine
 10
-64.75411825
 20
670.99756970
 30
0.0
 11
-64.75411825
 21
646.99756970
 31
0.0
  0
LINE
  5
3E2
100
AcDbEntity
  8
0
100
AcDbLine
 10
-152.75411825
 20
670.99756970
 30
0.0
 11
-214.75411825
 21
670.99756970
 31
0.0
  0
LINE
  5
3E3
100
AcDbEntity
  8
0
100
AcDbLine
 10
-216.75411825
 20
670.99756970
 30
0.0
 11
-216.75411825
 21
465.99756970
 31
0.0
  0
LINE
  5
3E4
100
AcDbEntity
  8
0
100
AcDbLine
 10
-214.75411825
 20
467.99756970
 30
0.0
 11
-216.75411825
 21
465.99756970
 31
0.0
  0
LINE
  5
3E5
100
AcDbEntity
  8
0
100
AcDbLine
 10
-214.75411825
 20
670.99756970
 30
0.0
 11
-214.75411825
 21
467.99756970
 31
0.0
  0
LINE
  5
3E6
100
AcDbEntity
  8
0
100
AcDbLine
 10
-214.75411825
 20
670.99756970
 30
0.0
 11
-216.75411825
 21
670.99756970
 31
0.0
  0
POLYLINE
  5
3E7
100
AcDbEntity
  8
0
100
AcDb2dPolyline
 66
     1
  0
VERTEX
  5
3E8
100
AcDbEntity
  8
0
100
AcDbVertex
100
AcDb2dVertex
 10
-214.75411825
 20
467.99756970
 30
0.0
  0
VERTEX
  5
3E9
100
AcDbEntity
  8
0
100
AcDbVertex
100
AcDb2dVertex
 10
611.24588175
 20
467.99756970
 30
0.0
  0
VERTEX
  5
3EA
100
AcDbEntity
  8
0
100
AcDbVertex
100
AcDb2dVertex
 10
613.24588175
 20
465.99756970
 30
0.0
  0
SEQEND
  5
3EB
100
AcDbEntity
  8
0
  0
POLYLINE
  5
3EC
100
AcDbEntity
  8
0
100
AcDb2dPolyline
 66
     1
  0
VERTEX
  5
3ED
100
AcDbEntity
  8
0
100
AcDbVertex
100
AcDb2dVertex
 10
-216.75411825
 20
465.99756970
 30
0.0
  0
VERTEX
  5
3EE
100
AcDbEntity
  8
0
100
AcDbVertex
100
AcDb2dVertex
 10
613.24588175
 20
465.99756970
 30
0.0
  0
VERTEX
  5
3EF
100
AcDbEntity
  8
0
100
AcDbVertex
100
AcDb2dVertex
 10
613.24588175
 20
670.99756970
 30
0.0
  0
VERTEX
  5
3F0
100
AcDbEntity
  8
0
100
AcDbVertex
100
AcDb2dVertex
 10
611.24588175
 20
670.99756970
 30
0.0
  0
SEQEND
  5
3F1
100
AcDbEntity
  8
0
  0
LINE
  5
3F2
100
AcDbEntity
  8
0
100
AcDbLine
 10
611.24588175
 20
467.99756970
 30
0.0
 11
611.24588175
 21
670.99756970
 31
0.0
  0
ENDBLK
  5
3F3
100
AcDbEntity
  8
0
100
AcDbBlockEnd
  0
BLOCK
  5
3F4
100
AcDbEntity
  8
0
100
AcDbBlockBegin
  2
SCHUTZHAUBE_00078
 70
    64
 10
0.0
 20
0.0
 30
0.0
  3
SCHUTZHAUBE_00078
  0
INSERT
  5
3F5
100
AcDbEntity
  8
0
100
AcDbBlockReference
  2
_SCHUTZHAUBE_00079
 10
-94.25411825
 20
920.99756970
 30
0.0
  0
ENDBLK
  5
3F6
100
AcDbEntity
  8
0
100
AcDbBlockEnd
  0
BLOCK
  5
3F7
100
AcDbEntity
  8
0
100
AcDbBlockBegin
  2
_SCHUTZHAUBE_00079
 70
    64
 10
-94.25411825
 20
920.99756970
 30
0.0
  3
_SCHUTZHAUBE_00079
  0
LINE
  5
3F8
100
AcDbEntity
  8
0
100
AcDbLine
 10
-94.25411825
 20
920.99756970
 30
0.0
 11
-152.75411825
 21
920.99756970
 31
0.0
  0
LINE
  5
3F9
100
AcDbEntity
  8
0
100
AcDbLine
 10
549.24588175
 20
920.99756970
 30
0.0
 11
490.74588175
 21
920.99756970
 31
0.0
  0
LINE
  5
3FA
100
AcDbEntity
  8
0
100
AcDbLine
 10
-155.58254537
 20
920.99756970
 30
0.0
 11
-155.58254537
 21
918.99756970
 31
0.0
  0
LINE
  5
3FB
100
AcDbEntity
  8
0
100
AcDbLine
 10
490.74588175
 20
918.99756970
 30
0.0
 11
552.07430888
 21
918.99756970
 31
0.0
  0
LINE
  5
3FC
100
AcDbEntity
  8
0
100
AcDbLine
 10
-155.58254537
 20
918.99756970
 30
0.0
 11
-94.25411825
 21
918.99756970
 31
0.0
  0
LINE
  5
3FD
100
AcDbEntity
  8
0
100
AcDbLine
 10
552.07430888
 20
918.99756970
 30
0.0
 11
552.07430888
 21
920.99756970
 31
0.0
  0
LINE
  5
3FE
100
AcDbEntity
  8
0
100
AcDbLine
 10
611.24588175
 20
920.99756970
 30
0.0
 11
549.24588175
 21
920.99756970
 31
0.0
  0
LINE
  5
3FF
100
AcDbEntity
  8
0
100
AcDbLine
 10
461.24588175
 20
1025.49756970
 30
0.0
 11
461.24588175
 21
920.99756970
 31
0.0
  0
LINE
  5
400
100
AcDbEntity
  8
0
100
AcDbLine
 10
461.24588175
 20
1123.99756970
 30
0.0
 11
461.24588175
 21
1082.99756970
 31
0.0
  0
LINE
  5
401
100
AcDbEntity
  8
0
100
AcDbLine
 10
-64.75411825
 20
1002.49756970
 30
0.0
 11
-64.75411825
 21
1123.99756970
 31
0.0
  0
LINE
  5
402
100
AcDbEntity
  8
0
100
AcDbLine
 10
-64.75411825
 20
920.99756970
 30
0.0
 11
-64.75411825
 21
944.99756970
 31
0.0
  0
POLYLINE
  5
403
100
AcDbEntity
  8
0
100
AcDb2dPolyline
 66
     1
  0
VERTEX
  5
404
100
AcDbEntity
  8
0
100
AcDbVertex
100
AcDb2dVertex
 10
-152.75411825
 20
920.99756970
 30
0.0
  0
VERTEX
  5
405
100
AcDbEntity
  8
0
100
AcDbVertex
100
AcDb2dVertex
 10
-214.75411825
 20
920.99756970
 30
0.0
  0
VERTEX
  5
406
100
AcDbEntity
  8
0
100
AcDbVertex
100
AcDb2dVertex
 10
-216.75411825
 20
920.99756970
 30
0.0
  0
VERTEX
  5
407
100
AcDbEntity
  8
0
100
AcDbVertex
100
AcDb2dVertex
 10
-216.75411825
 20
1125.99756970
 30
0.0
  0
SEQEND
  5
408
100
AcDbEntity
  8
0
  0
LINE
  5
409
100
AcDbEntity
  8
0
100
AcDbLine
 10
-214.75411825
 20
1123.99756970
 30
0.0
 11
-216.75411825
 21
1125.99756970
 31
0.0
  0
POLYLINE
  5
40A
100
AcDbEntity
  8
0
100
AcDb2dPolyline
 66
     1
  0
VERTEX
  5
40B
100
AcDbEntity
  8
0
100
AcDbVertex
100
AcDb2dVertex
 10
-214.75411825
 20
920.99756970
 30
0.0
  0
VERTEX
  5
40C
100
AcDbEntity
  8
0
100
AcDbVertex
100
AcDb2dVertex
 10
-214.75411825
 20
1123.99756970
 30
0.0
  0
VERTEX
  5
40D
100
AcDbEntity
  8
0
100
AcDbVertex
100
AcDb2dVertex
 10
611.24588175
 20
1123.99756970
 30
0.0
  0
VERTEX
  5
40E
100
AcDbEntity
  8
0
100
AcDbVertex
100
AcDb2dVertex
 10
613.24588175
 20
1125.99756970
 30
0.0
  0
SEQEND
  5
40F
100
AcDbEntity
  8
0
  0
POLYLINE
  5
410
100
AcDbEntity
  8
0
100
AcDb2dPolyline
 66
     1
  0
VERTEX
  5
411
100
AcDbEntity
  8
0
100
AcDbVertex
100
AcDb2dVertex
 10
-216.75411825
 20
1125.99756970
 30
0.0
  0
VERTEX
  5
412
100
AcDbEntity
  8
0
100
AcDbVertex
100
AcDb2dVertex
 10
613.24588175
 20
1125.99756970
 30
0.0
  0
VERTEX
  5
413
100
AcDbEntity
  8
0
100
AcDbVertex
100
AcDb2dVertex
 10
613.24588175
 20
920.99756970
 30
0.0
  0
VERTEX
  5
414
100
AcDbEntity
  8
0
100
AcDbVertex
100
AcDb2dVertex
 10
611.24588175
 20
920.99756970
 30
0.0
  0
SEQEND
  5
415
100
AcDbEntity
  8
0
  0
LINE
  5
416
100
AcDbEntity
  8
0
100
AcDbLine
 10
611.24588175
 20
1123.99756970
 30
0.0
 11
611.24588175
 21
920.99756970
 31
0.0
  0
ENDBLK
  5
417
100
AcDbEntity
  8
0
100
AcDbBlockEnd
  0
BLOCK
  5
418
100
AcDbEntity
  8
0
100
AcDbBlockBegin
  2
ANSCHLUßFLANSCH_00080
 70
    64
 10
0.0
 20
0.0
 30
0.0
  3
ANSCHLUßFLANSCH_00080
  0
INSERT
  5
419
100
AcDbEntity
  8
0
100
AcDbBlockReference
  2
_ANSCHLUßFLANSCH_00081
 10
113.24588175
 20
1120.99756970
 30
0.0
  0
ENDBLK
  5
41A
100
AcDbEntity
  8
0
100
AcDbBlockEnd
  0
BLOCK
  5
41B
100
AcDbEntity
  8
0
100
AcDbBlockBegin
  2
_ANSCHLUßFLANSCH_00081
 70
    64
 10
113.24588175
 20
1120.99756970
 30
0.0
  3
_ANSCHLUßFLANSCH_00081
  0
LINE
  5
41C
100
AcDbEntity
  8
0
100
AcDbLine
 10
113.24588175
 20
1120.99756970
 30
0.0
 11
-6.75411825
 21
1120.99756970
 31
0.0
  0
LINE
  5
41D
100
AcDbEntity
  8
0
100
AcDbLine
 10
-6.75411825
 20
1105.99756970
 30
0.0
 11
-6.75411825
 21
1120.99756970
 31
0.0
  0
LINE
  5
41E
100
AcDbEntity
  8
0
100
AcDbLine
 10
113.24588175
 20
1105.99756970
 30
0.0
 11
-6.75411825
 21
1105.99756970
 31
0.0
  0
LINE
  5
41F
100
AcDbEntity
  8
0
100
AcDbLine
 10
113.24588175
 20
1105.99756970
 30
0.0
 11
113.24588175
 21
1120.99756970
 31
0.0
  0
ENDBLK
  5
420
100
AcDbEntity
  8
0
100
AcDbBlockEnd
  0
ENDSEC
  0
SECTION
  2
ENTITIES
  0
INSERT
  5
421
100
AcDbEntity
  8
0
100
AcDbBlockReference
  2
ANS3D02_00001
 10
0.0
 20
0.0
 30
0.0
  0
INSERT
  5
422
100
AcDbEntity
  8
0
100
AcDbBlockReference
  2
ANS3D03_00011
 10
0.0
 20
0.0
 30
0.0
  0
INSERT
  5
423
100
AcDbEntity
  8
0
100
AcDbBlockReference
  2
ANS3D04_00021
 10
0.0
 20
0.0
 30
0.0
  0
INSERT
  5
424
100
AcDbEntity
  8
0
100
AcDbBlockReference
  2
ANS3D05_00031
 10
0.0
 20
0.0
 30
0.0
  0
INSERT
  5
425
100
AcDbEntity
  8
0
100
AcDbBlockReference
  2
ANS3D06_00050
 10
0.0
 20
0.0
 30
0.0
  0
ENDSEC
  0
SECTION
  2
OBJECTS
  0
DICTIONARY
  5
C
330
0
100
AcDbDictionary
281
     1
  3
ACAD_GROUP
350
D
  3
ACAD_LAYOUT
350
19
  3
ACAD_MLINESTYLE
350
16
  0
DICTIONARY
  5
115
330
1E
100
AcDbDictionary
280
     1
281
     1
  3
ACAD_INDEX
360
116
  0
DICTIONARY
  5
D
100
AcDbDictionary
281
     1
  0
DICTIONARY
  5
19
100
AcDbDictionary
281
     1
  3
Layout1
350
1D
  3
Model
350
21
  0
DICTIONARY
  5
16
100
AcDbDictionary
281
     1
  3
Standard
350
17
  0
DICTIONARY
  5
116
100
AcDbDictionary
281
     1
  3
*A1
350
117
  0
LAYOUT
  5
1D
100
AcDbPlotSettings
  1

  2
C:\Programme\MDT\plotters\DWF Classic.pc3
  4

  6

 40
0.0
 41
0.0
 42
0.0
 43
0.0
 44
0.0
 45
0.0
 46
0.0
 47
0.0
 48
0.0
 49
0.0
140
0.0
141
0.0
142
1.0
143
1.0
 70
   688
 72
     0
 73
     0
 74
     5
  7

 75
    16
147
1.0
148
0.0
149
0.0
100
AcDbLayout
  1
Layout1
 70
     1
 71
     1
 10
0.0
 20
0.0
 11
12.0
 21
9.0
 12
0.0
 22
0.0
 32
0.0
 14
1.000000000000000E+20
 24
1.000000000000000E+20
 34
1.000000000000000E+20
 15
-1.000000000000000E+20
 25
-1.000000000000000E+20
 35
-1.000000000000000E+20
146
0.0
 13
0.0
 23
0.0
 33
0.0
 16
1.0
 26
0.0
 36
0.0
 17
0.0
 27
1.0
 37
0.0
 76
     0
330
1A
  0
LAYOUT
  5
21
100
AcDbPlotSettings
  1

  2
C:\Programme\MDT\plotters\DWF Classic.pc3
  4

  6

 40
0.0
 41
0.0
 42
0.0
 43
0.0
 44
0.0
 45
0.0
 46
0.0
 47
0.0
 48
0.0
 49
0.0
140
0.0
141
0.0
142
1.0
143
1.0
 70
  1712
 72
     0
 73
     0
 74
     0
  7

 75
     0
147
1.0
148
0.0
149
0.0
100
AcDbLayout
  1
Model
 70
     1
 71
     0
 10
0.0
 20
0.0
 11
12.0
 21
9.0
 12
0.0
 22
0.0
 32
0.0
 14
0.0
 24
0.0
 34
0.0
 15
0.0
 25
0.0
 35
0.0
146
0.0
 13
0.0
 23
0.0
 33
0.0
 16
1.0
 26
0.0
 36
0.0
 17
0.0
 27
1.0
 37
0.0
 76
     0
330
1E
  0
MLINESTYLE
  5
17
100
AcDbMlineStyle
  2
STANDARD
 70
     0
  3

 62
   256
 51
90.0
 52
90.0
 71
     2
 49
0.5
 62
   256
  6
BYLAYER
 49
-0.5
 62
   256
  6
BYLAYER
  0
ACDBPLACEHOLDER
  5
F
  0
XRECORD
  5
129
100
AcDbXrecord
280
     1
 90
        0
  0
XRECORD
  5
12A
100
AcDbXrecord
280
     1
  1
{46C4153B-0B27-49FA-99B6-AF3E057D65BC}
  0
XRECORD
  5
122
100
AcDbXrecord
280
     1
  1

  0
XRECORD
  5
128
100
AcDbXrecord
280
     1
 90
        0
  0
XRECORD
  5
124
100
AcDbXrecord
280
     1
340
19
  0
XRECORD
  5
127
100
AcDbXrecord
280
     1
 90
    10781
  0
XRECORD
  5
125
100
AcDbXrecord
280
     1
340
18
  0
XRECORD
  5
126
100
AcDbXrecord
280
     1
340
E
  0
XRECORD
  5
12C
100
AcDbXrecord
280
     1
 40
0.0
  0
XRECORD
  5
12F
100
AcDbXrecord
280
     1
340
0
  0
XRECORD
  5
135
100
AcDbXrecord
280
     1
 10
0.0
 20
0.0
 30
0.0
  0
XRECORD
  5
131
100
AcDbXrecord
280
     1
 10
0.0
 20
0.0
 30
0.0
  0
XRECORD
  5
134
100
AcDbXrecord
280
     1
 10
0.0
 20
0.0
 30
0.0
  0
XRECORD
  5
132
100
AcDbXrecord
280
     1
 10
0.0
 20
0.0
 30
0.0
  0
XRECORD
  5
133
100
AcDbXrecord
280
     1
 10
0.0
 20
0.0
 30
0.0
  0
XRECORD
  5
130
100
AcDbXrecord
280
     1
 10
0.0
 20
0.0
 30
0.0
  0
XRECORD
  5
12D
100
AcDbXrecord
280
     1
340
0
  0
XRECORD
  5
12E
100
AcDbXrecord
280
     1
 70
     0
  0
XRECORD
  5
123
100
AcDbXrecord
280
     1
  1

  0
XRECORD
  5
120
100
AcDbXrecord
280
     1
 90
        1
  0
XRECORD
  5
121
100
AcDbXrecord
280
     1
 90
       70
  0
XRECORD
  5
138
100
AcDbXrecord
280
     1
340
0
  0
XRECORD
  5
13E
100
AcDbXrecord
280
     1
 10
0.0
 20
0.0
 30
0.0
  0
XRECORD
  5
13A
100
AcDbXrecord
280
     1
 10
0.0
 20
0.0
 30
0.0
  0
XRECORD
  5
13D
100
AcDbXrecord
280
     1
 10
0.0
 20
0.0
 30
0.0
  0
XRECORD
  5
13B
100
AcDbXrecord
280
     1
 10
0.0
 20
0.0
 30
0.0
  0
XRECORD
  5
13C
100
AcDbXrecord
280
     1
 10
0.0
 20
0.0
 30
0.0
  0
XRECORD
  5
139
100
AcDbXrecord
280
     1
 10
0.0
 20
0.0
 30
0.0
  0
XRECORD
  5
136
100
AcDbXrecord
280
     1
340
0
  0
XRECORD
  5
137
100
AcDbXrecord
280
     1
 70
     0
  0
XRECORD
  5
12B
100
AcDbXrecord
280
     1
  1
{09700D79-BD6A-4B2C-8A65-8ED4ED61BA28}
  0
DICTIONARYVAR
  5
11D
100
DictionaryVariables
280
     0
  1
1
  0
ENDSEC
  0
EOF
