999
NT  : - 1800
  0
SECTION
  2
HEADER
  9
$ACADVER
  1
AC1015
  9
$DWGCODEPAGE
  3
ANSI_1252
  9
$INSBASE
 10
0.0
 20
0.0
 30
0.0
  9
$EXTMIN
 10
-2416.55835856
 20
-1698.14780697
 30
0.0
  9
$EXTMAX
 10
4674.69036715
 20
2044.31410840
 30
0.0
  9
$LIMMIN
 10
-2416.55835856
 20
-1698.14780697
  9
$LIMMAX
 10
4674.69036715
 20
2044.31410840
  9
$FILLMODE
 70
     1
  9
$QTEXTMODE
 70
     0
  9
$LTSCALE
 40
1.0
  9
$ATTMODE
 70
     1
  9
$TEXTSTYLE
  7
Standard
  9
$LUNITS
 70
     2
  9
$LUPREC
 70
     4
  9
$AUNITS
 70
     0
  9
$AUPREC
 70
     0
  9
$ANGBASE
 50
0.0
  9
$ANGDIR
 70
     0
  9
$HANDSEED
  5
440
  9
$TILEMODE
 70
     1
  9
$VISRETAIN
 70
     0
  9
$MEASUREMENT
 70
     1
  0
ENDSEC
  0
SECTION
  2
CLASSES
  0
ENDSEC
  0
SECTION
  2
TABLES
  0
TABLE
  2
VPORT
  5
1
100
AcDbSymbolTable
 70
     1
  0
VPORT
  5
2
100
AcDbSymbolTableRecord
100
AcDbViewportTableRecord
  2
*Active
 70
     0
 10
0.0
 20
0.0
 11
1.0
 21
1.0
 12
1129.06600429
 22
173.08315072
 13
0.0
 23
0.0
 14
1.0
 24
1.0
 15
0.0
 25
0.0
 16
0.0
 26
0.0
 36
1.0
 17
0.0
 27
0.0
 37
0.0
 40
3742.461915372
 41
1.894808521
 42
50.0
 43
0.0
 44
0.0
 50
0.0
 51
0.0
 71
     0
 72
   100
 73
     1
 74
     1
 75
     0
 76
     0
 77
     0
 78
     0
  0
ENDTAB
  0
TABLE
  2
LTYPE
  5
3
100
AcDbSymbolTable
 70
    21
  0
LTYPE
  5
4
100
AcDbSymbolTableRecord
100
AcDbLinetypeTableRecord
  2
ByBlock
 70
    64
  3

 72
    65
 73
     0
 40
0.0
  0
LTYPE
  5
5
100
AcDbSymbolTableRecord
100
AcDbLinetypeTableRecord
  2
ByLayer
 70
    64
  3

 72
    65
 73
     0
 40
0.0
  0
LTYPE
  5
6
100
AcDbSymbolTableRecord
100
AcDbLinetypeTableRecord
  2
CONTINUOUS
 70
    64
  3
Solid line
 72
    65
 73
     0
 40
0.0
  0
LTYPE
  5
7
100
AcDbSymbolTableRecord
100
AcDbLinetypeTableRecord
  2
DOT
 70
    64
  3
..............
 72
    65
 73
     2
 40
2.000
 49
0.500
 74
     0
 49
-1.500
 74
     0
  0
LTYPE
  5
8
100
AcDbSymbolTableRecord
100
AcDbLinetypeTableRecord
  2
HIDDEN
 70
    64
  3
-- -- -- -- --
 72
    65
 73
     2
 40
7.000
 49
4.000
 74
     0
 49
-3.000
 74
     0
  0
LTYPE
  5
9
100
AcDbSymbolTableRecord
100
AcDbLinetypeTableRecord
  2
DASHDOT
 70
    64
  3
--.--.--.--.--
 72
    65
 73
     4
 40
8.500
 49
4.000
 74
     0
 49
-2.000
 74
     0
 49
0.500
 74
     0
 49
-2.000
 74
     0
  0
LTYPE
  5
A
100
AcDbSymbolTableRecord
100
AcDbLinetypeTableRecord
  2
STRICHPUNKT2
 70
    64
  3
--.--.--.--.--
 72
    65
 73
     4
 40
18.500
 49
10.000
 74
     0
 49
-4.000
 74
     0
 49
0.500
 74
     0
 49
-4.000
 74
     0
  0
LTYPE
  5
B
100
AcDbSymbolTableRecord
100
AcDbLinetypeTableRecord
  2
STRICHPUNKT3
 70
    64
  3
--.--.--.--.--
 72
    65
 73
     4
 40
35.500
 49
25.000
 74
     0
 49
-5.000
 74
     0
 49
0.500
 74
     0
 49
-5.000
 74
     0
  0
LTYPE
  5
13F
100
AcDbSymbolTableRecord
100
AcDbLinetypeTableRecord
  2
PHANTOM
 70
    64
  3
--..--..--..--
 72
    65
 73
     6
 40
23.000
 49
10.000
 74
     0
 49
-4.000
 74
     0
 49
0.500
 74
     0
 49
-4.000
 74
     0
 49
0.500
 74
     0
 49
-4.000
 74
     0
  0
LTYPE
  5
140
100
AcDbSymbolTableRecord
100
AcDbLinetypeTableRecord
  2
PHANTOM2
 70
    64
  3
--..--..--..--
 72
    65
 73
     6
 40
33.000
 49
20.000
 74
     0
 49
-4.000
 74
     0
 49
0.500
 74
     0
 49
-4.000
 74
     0
 49
0.500
 74
     0
 49
-4.000
 74
     0
  0
LTYPE
  5
141
100
AcDbSymbolTableRecord
100
AcDbLinetypeTableRecord
  2
PHANTOM3
 70
    64
  3
--..--..--..--
 72
    65
 73
     6
 40
50.000
 49
37.000
 74
     0
 49
-4.000
 74
     0
 49
0.500
 74
     0
 49
-4.000
 74
     0
 49
0.500
 74
     0
 49
-4.000
 74
     0
  0
LTYPE
  5
142
100
AcDbSymbolTableRecord
100
AcDbLinetypeTableRecord
  2
STR3PKT
 70
    64
  3
--...--...--...
 72
    65
 73
     8
 40
31.500
 49
20.000
 74
     0
 49
-2.500
 74
     0
 49
0.500
 74
     0
 49
-2.500
 74
     0
 49
0.500
 74
     0
 49
-2.500
 74
     0
 49
0.500
 74
     0
 49
-2.500
 74
     0
  0
LTYPE
  5
143
100
AcDbSymbolTableRecord
100
AcDbLinetypeTableRecord
  2
2STRPKT
 70
    64
  3
--.--.--.--.--
 72
    65
 73
     6
 40
28.000
 49
10.000
 74
     0
 49
-2.500
 74
     0
 49
10.000
 74
     0
 49
-2.500
 74
     0
 49
0.500
 74
     0
 49
-2.500
 74
     0
  0
LTYPE
  5
144
100
AcDbSymbolTableRecord
100
AcDbLinetypeTableRecord
  2
GESTRICHELT2
 70
    64
  3
-- -- -- -- --
 72
    65
 73
     2
 40
25.000
 49
10.000
 74
     0
 49
-15.000
 74
     0
  0
LTYPE
  5
145
100
AcDbSymbolTableRecord
100
AcDbLinetypeTableRecord
  2
2STR2PKT
 70
    64
  3
--..--..--..--
 72
    65
 73
     8
 40
31.000
 49
10.000
 74
     0
 49
-2.500
 74
     0
 49
10.000
 74
     0
 49
-2.500
 74
     0
 49
0.500
 74
     0
 49
-2.500
 74
     0
 49
0.500
 74
     0
 49
-2.500
 74
     0
  0
LTYPE
  5
146
100
AcDbSymbolTableRecord
100
AcDbLinetypeTableRecord
  2
STR3PKT2
 70
    64
  3
--...--...--...
 72
    65
 73
     8
 40
21.000
 49
10.000
 74
     0
 49
-2.500
 74
     0
 49
0.500
 74
     0
 49
-2.500
 74
     0
 49
0.500
 74
     0
 49
-2.500
 74
     0
 49
0.500
 74
     0
 49
-2.000
 74
     0
  0
LTYPE
  5
147
100
AcDbSymbolTableRecord
100
AcDbLinetypeTableRecord
  2
2STR3PKT
 70
    64
  3
--...--...--...
 72
    65
 73
    10
 40
34.000
 49
10.000
 74
     0
 49
-2.500
 74
     0
 49
10.000
 74
     0
 49
-2.500
 74
     0
 49
0.500
 74
     0
 49
-2.500
 74
     0
 49
0.500
 74
     0
 49
-2.500
 74
     0
 49
0.500
 74
     0
 49
-2.500
 74
     0
  0
LTYPE
  5
148
100
AcDbSymbolTableRecord
100
AcDbLinetypeTableRecord
  2
STRKSTR
 70
    64
  3
-- - -- - -- -
 72
    65
 73
     4
 40
30.000
 49
20.000
 74
     0
 49
-2.500
 74
     0
 49
5.000
 74
     0
 49
-2.500
 74
     0
  0
LTYPE
  5
149
100
AcDbSymbolTableRecord
100
AcDbLinetypeTableRecord
  2
STRKSTR2
 70
    64
  3
-- - -- - -- -
 72
    65
 73
     6
 40
37.500
 49
20.000
 74
     0
 49
-2.500
 74
     0
 49
5.000
 74
     0
 49
-2.500
 74
     0
 49
5.000
 74
     0
 49
-2.500
 74
     0
  0
LTYPE
  5
14A
100
AcDbSymbolTableRecord
100
AcDbLinetypeTableRecord
  2
STRKSTR3
 70
    64
  3
-- - -- - -- -
 72
    65
 73
     8
 40
45.000
 49
20.000
 74
     0
 49
-2.500
 74
     0
 49
5.000
 74
     0
 49
-2.500
 74
     0
 49
5.000
 74
     0
 49
-2.500
 74
     0
 49
5.000
 74
     0
 49
-2.500
 74
     0
  0
LTYPE
  5
14B
100
AcDbSymbolTableRecord
100
AcDbLinetypeTableRecord
  2
PUNKT2
 70
    64
  3
..............
 72
    65
 73
     2
 40
3.500
 49
0.500
 74
     0
 49
-3.000
 74
     0
  0
ENDTAB
  0
TABLE
  2
LAYER
  5
14C
100
AcDbSymbolTable
 70
    14
  0
LAYER
  5
14D
100
AcDbSymbolTableRecord
100
AcDbLayerTableRecord
  2
0
 70
    64
 62
     7
  6
CONTINUOUS
370
    -3
390
F
  0
LAYER
  5
14E
100
AcDbSymbolTableRecord
100
AcDbLayerTableRecord
  2
LE_GREEN
 70
    64
 62
     3
  6
CONTINUOUS
370
    -3
390
F
  0
LAYER
  5
14F
100
AcDbSymbolTableRecord
100
AcDbLayerTableRecord
  2
LE_RED
 70
    64
 62
     1
  6
CONTINUOUS
370
    -3
390
F
  0
LAYER
  5
150
100
AcDbSymbolTableRecord
100
AcDbLayerTableRecord
  2
LE_ALL
 70
    64
 62
     7
  6
CONTINUOUS
370
    50
390
F
  0
LAYER
  5
151
100
AcDbSymbolTableRecord
100
AcDbLayerTableRecord
  2
LE_HIDDEN1
 70
    64
 62
     3
  6
HIDDEN
370
    -3
390
F
  0
LAYER
  5
152
100
AcDbSymbolTableRecord
100
AcDbLayerTableRecord
  2
LE_HIDDEN
 70
    64
 62
     7
  6
CONTINUOUS
370
    -3
390
F
  0
LAYER
  5
153
100
AcDbSymbolTableRecord
100
AcDbLayerTableRecord
  2
LE_MIDDLE
 70
    64
 62
     7
  6
CONTINUOUS
370
    -3
390
F
  0
LAYER
  5
154
100
AcDbSymbolTableRecord
100
AcDbLayerTableRecord
  2
TXT_YELLOW
 70
    64
 62
     2
  6
CONTINUOUS
370
    -3
390
F
  0
LAYER
  5
155
100
AcDbSymbolTableRecord
100
AcDbLayerTableRecord
  2
TXT_DIM49
 70
    64
 62
     2
  6
CONTINUOUS
370
    -3
390
F
  0
LAYER
  5
156
100
AcDbSymbolTableRecord
100
AcDbLayerTableRecord
  2
TXT_ALL
 70
    64
 62
     7
  6
CONTINUOUS
370
    -3
390
F
  0
LAYER
  5
157
100
AcDbSymbolTableRecord
100
AcDbLayerTableRecord
  2
DIM49
 70
    64
 62
     4
  6
CONTINUOUS
370
    -3
390
F
  0
LAYER
  5
158
100
AcDbSymbolTableRecord
100
AcDbLayerTableRecord
  2
HATCH
 70
    64
 62
     3
  6
CONTINUOUS
370
    -3
390
F
  0
LAYER
  5
159
100
AcDbSymbolTableRecord
100
AcDbLayerTableRecord
  2
1
 70
    64
 62
     7
  6
CONTINUOUS
370
    -3
390
F
  0
LAYER
  5
15A
100
AcDbSymbolTableRecord
100
AcDbLayerTableRecord
  2
49
 70
    64
 62
     7
  6
CONTINUOUS
370
    -3
390
F
  0
ENDTAB
  0
TABLE
  2
STYLE
  5
15B
100
AcDbSymbolTable
 70
     2
  0
STYLE
  5
15C
100
AcDbSymbolTableRecord
100
AcDbTextStyleTableRecord
  2
MONOTXT
 70
     0
 40
0.0
 41
1.000
 50
0.0
 71
     0
 42
1.000
  3
monotxt.shx
  4

  0
STYLE
  5
15D
100
AcDbSymbolTableRecord
100
AcDbTextStyleTableRecord
  2
STANDARD
 70
     0
 40
0.0
 41
1.000
 50
0.0
 71
     0
 42
1.000
  3
txt
  4

  0
ENDTAB
  0
TABLE
  2
VIEW
  5
15E
100
AcDbSymbolTable
 70
     0
  0
ENDTAB
  0
TABLE
  2
UCS
  5
15F
100
AcDbSymbolTable
 70
     0
  0
ENDTAB
  0
TABLE
  2
APPID
  5
160
100
AcDbSymbolTable
 70
     1
  0
APPID
  5
161
100
AcDbSymbolTableRecord
100
AcDbRegAppTableRecord
  2
ACAD
 70
     0
  0
ENDTAB
  0
TABLE
  2
DIMSTYLE
  5
162
100
AcDbSymbolTable
100
AcDbDimStyleTable
 70
     0
  0
ENDTAB
  0
TABLE
  2
BLOCK_RECORD
  5
163
100
AcDbSymbolTable
 70
    89
  0
BLOCK_RECORD
  5
1E
100
AcDbSymbolTableRecord
100
AcDbBlockTableRecord
  2
*Model_Space
  0
BLOCK_RECORD
  5
1A
100
AcDbSymbolTableRecord
100
AcDbBlockTableRecord
  2
*Paper_Space
  0
BLOCK_RECORD
  5
164
100
AcDbSymbolTableRecord
100
AcDbBlockTableRecord
  2
ANS3D02_00001
  0
BLOCK_RECORD
  5
165
100
AcDbSymbolTableRecord
100
AcDbBlockTableRecord
  2
FIG3D02_00002
  0
BLOCK_RECORD
  5
166
100
AcDbSymbolTableRecord
100
AcDbBlockTableRecord
  2
JR100_00003
  0
BLOCK_RECORD
  5
167
100
AcDbSymbolTableRecord
100
AcDbBlockTableRecord
  2
GEHÄUSE_00004
  0
BLOCK_RECORD
  5
168
100
AcDbSymbolTableRecord
100
AcDbBlockTableRecord
  2
_GEHÄUSE_00005
  0
BLOCK_RECORD
  5
169
100
AcDbSymbolTableRecord
100
AcDbBlockTableRecord
  2
SCHUTZHAUBE_00006
  0
BLOCK_RECORD
  5
16A
100
AcDbSymbolTableRecord
100
AcDbBlockTableRecord
  2
SCHUTZHAUBE_00007
  0
BLOCK_RECORD
  5
16B
100
AcDbSymbolTableRecord
100
AcDbBlockTableRecord
  2
_SCHUTZHAUBE_00008
  0
BLOCK_RECORD
  5
16C
100
AcDbSymbolTableRecord
100
AcDbBlockTableRecord
  2
FLIEHGEWICHT_00009
  0
BLOCK_RECORD
  5
16D
100
AcDbSymbolTableRecord
100
AcDbBlockTableRecord
  2
FLIEHGEWICHT_00010
  0
BLOCK_RECORD
  5
16E
100
AcDbSymbolTableRecord
100
AcDbBlockTableRecord
  2
FLIEHGEWICHT_00011
  0
BLOCK_RECORD
  5
16F
100
AcDbSymbolTableRecord
100
AcDbBlockTableRecord
  2
_FLIEHGEWICHT_00012
  0
BLOCK_RECORD
  5
170
100
AcDbSymbolTableRecord
100
AcDbBlockTableRecord
  2
ANSCHLUßFLANSCH_00013
  0
BLOCK_RECORD
  5
171
100
AcDbSymbolTableRecord
100
AcDbBlockTableRecord
  2
_ANSCHLUßFLANSCH_00014
  0
BLOCK_RECORD
  5
172
100
AcDbSymbolTableRecord
100
AcDbBlockTableRecord
  2
ANS3D03_00015
  0
BLOCK_RECORD
  5
173
100
AcDbSymbolTableRecord
100
AcDbBlockTableRecord
  2
FIG3D03_00016
  0
BLOCK_RECORD
  5
174
100
AcDbSymbolTableRecord
100
AcDbBlockTableRecord
  2
JR100_00017
  0
BLOCK_RECORD
  5
175
100
AcDbSymbolTableRecord
100
AcDbBlockTableRecord
  2
GEHÄUSE_00018
  0
BLOCK_RECORD
  5
176
100
AcDbSymbolTableRecord
100
AcDbBlockTableRecord
  2
_GEHÄUSE_00019
  0
BLOCK_RECORD
  5
177
100
AcDbSymbolTableRecord
100
AcDbBlockTableRecord
  2
SCHUTZHAUBE_00020
  0
BLOCK_RECORD
  5
178
100
AcDbSymbolTableRecord
100
AcDbBlockTableRecord
  2
SCHUTZHAUBE_00021
  0
BLOCK_RECORD
  5
179
100
AcDbSymbolTableRecord
100
AcDbBlockTableRecord
  2
_SCHUTZHAUBE_00022
  0
BLOCK_RECORD
  5
17A
100
AcDbSymbolTableRecord
100
AcDbBlockTableRecord
  2
SCHUTZHAUBE_00023
  0
BLOCK_RECORD
  5
17B
100
AcDbSymbolTableRecord
100
AcDbBlockTableRecord
  2
_SCHUTZHAUBE_00024
  0
BLOCK_RECORD
  5
17C
100
AcDbSymbolTableRecord
100
AcDbBlockTableRecord
  2
ANS3D04_00025
  0
BLOCK_RECORD
  5
17D
100
AcDbSymbolTableRecord
100
AcDbBlockTableRecord
  2
FIG3D04_00026
  0
BLOCK_RECORD
  5
17E
100
AcDbSymbolTableRecord
100
AcDbBlockTableRecord
  2
JR100_00027
  0
BLOCK_RECORD
  5
17F
100
AcDbSymbolTableRecord
100
AcDbBlockTableRecord
  2
GEHÄUSE_00028
  0
BLOCK_RECORD
  5
180
100
AcDbSymbolTableRecord
100
AcDbBlockTableRecord
  2
_GEHÄUSE_00029
  0
BLOCK_RECORD
  5
181
100
AcDbSymbolTableRecord
100
AcDbBlockTableRecord
  2
SCHUTZHAUBE_00030
  0
BLOCK_RECORD
  5
182
100
AcDbSymbolTableRecord
100
AcDbBlockTableRecord
  2
SCHUTZHAUBE_00031
  0
BLOCK_RECORD
  5
183
100
AcDbSymbolTableRecord
100
AcDbBlockTableRecord
  2
_SCHUTZHAUBE_00032
  0
BLOCK_RECORD
  5
184
100
AcDbSymbolTableRecord
100
AcDbBlockTableRecord
  2
SCHUTZHAUBE_00033
  0
BLOCK_RECORD
  5
185
100
AcDbSymbolTableRecord
100
AcDbBlockTableRecord
  2
_SCHUTZHAUBE_00034
  0
BLOCK_RECORD
  5
186
100
AcDbSymbolTableRecord
100
AcDbBlockTableRecord
  2
ANS3D05_00035
  0
BLOCK_RECORD
  5
187
100
AcDbSymbolTableRecord
100
AcDbBlockTableRecord
  2
FIG3D05_00036
  0
BLOCK_RECORD
  5
188
100
AcDbSymbolTableRecord
100
AcDbBlockTableRecord
  2
JR100_00037
  0
BLOCK_RECORD
  5
189
100
AcDbSymbolTableRecord
100
AcDbBlockTableRecord
  2
GEHÄUSE_00038
  0
BLOCK_RECORD
  5
18A
100
AcDbSymbolTableRecord
100
AcDbBlockTableRecord
  2
_GEHÄUSE_00039
  0
BLOCK_RECORD
  5
18B
100
AcDbSymbolTableRecord
100
AcDbBlockTableRecord
  2
SCHUTZHAUBE_00040
  0
BLOCK_RECORD
  5
18C
100
AcDbSymbolTableRecord
100
AcDbBlockTableRecord
  2
SCHUTZHAUBE_00041
  0
BLOCK_RECORD
  5
18D
100
AcDbSymbolTableRecord
100
AcDbBlockTableRecord
  2
_SCHUTZHAUBE_00042
  0
BLOCK_RECORD
  5
18E
100
AcDbSymbolTableRecord
100
AcDbBlockTableRecord
  2
SCHUTZHAUBE_00043
  0
BLOCK_RECORD
  5
18F
100
AcDbSymbolTableRecord
100
AcDbBlockTableRecord
  2
_SCHUTZHAUBE_00044
  0
BLOCK_RECORD
  5
190
100
AcDbSymbolTableRecord
100
AcDbBlockTableRecord
  2
FLIEHGEWICHT_00045
  0
BLOCK_RECORD
  5
191
100
AcDbSymbolTableRecord
100
AcDbBlockTableRecord
  2
FLIEHGEWICHT_00046
  0
BLOCK_RECORD
  5
192
100
AcDbSymbolTableRecord
100
AcDbBlockTableRecord
  2
FLIEHGEWICHT_00047
  0
BLOCK_RECORD
  5
193
100
AcDbSymbolTableRecord
100
AcDbBlockTableRecord
  2
_FLIEHGEWICHT_00048
  0
BLOCK_RECORD
  5
194
100
AcDbSymbolTableRecord
100
AcDbBlockTableRecord
  2
FLIEHGEWICHT_00049
  0
BLOCK_RECORD
  5
195
100
AcDbSymbolTableRecord
100
AcDbBlockTableRecord
  2
FLIEHGEWICHT_00050
  0
BLOCK_RECORD
  5
196
100
AcDbSymbolTableRecord
100
AcDbBlockTableRecord
  2
_FLIEHGEWICHT_00051
  0
BLOCK_RECORD
  5
197
100
AcDbSymbolTableRecord
100
AcDbBlockTableRecord
  2
FLIEHGEWICHT_00052
  0
BLOCK_RECORD
  5
198
100
AcDbSymbolTableRecord
100
AcDbBlockTableRecord
  2
_FLIEHGEWICHT_00053
  0
BLOCK_RECORD
  5
199
100
AcDbSymbolTableRecord
100
AcDbBlockTableRecord
  2
ANSCHLUßFLANSCH_00054
  0
BLOCK_RECORD
  5
19A
100
AcDbSymbolTableRecord
100
AcDbBlockTableRecord
  2
_ANSCHLUßFLANSCH_00055
  0
BLOCK_RECORD
  5
19B
100
AcDbSymbolTableRecord
100
AcDbBlockTableRecord
  2
ANS3D06_00056
  0
BLOCK_RECORD
  5
19C
100
AcDbSymbolTableRecord
100
AcDbBlockTableRecord
  2
FIG3D06_00057
  0
BLOCK_RECORD
  5
19D
100
AcDbSymbolTableRecord
100
AcDbBlockTableRecord
  2
JR100_00058
  0
BLOCK_RECORD
  5
19E
100
AcDbSymbolTableRecord
100
AcDbBlockTableRecord
  2
GEHÄUSE_00059
  0
BLOCK_RECORD
  5
19F
100
AcDbSymbolTableRecord
100
AcDbBlockTableRecord
  2
_GEHÄUSE_00060
  0
BLOCK_RECORD
  5
1A0
100
AcDbSymbolTableRecord
100
AcDbBlockTableRecord
  2
WELLE_00061
  0
BLOCK_RECORD
  5
1A1
100
AcDbSymbolTableRecord
100
AcDbBlockTableRecord
  2
WELLE_00062
  0
BLOCK_RECORD
  5
1A2
100
AcDbSymbolTableRecord
100
AcDbBlockTableRecord
  2
_WELLE_00063
  0
BLOCK_RECORD
  5
1A3
100
AcDbSymbolTableRecord
100
AcDbBlockTableRecord
  2
WELLE_00064
  0
BLOCK_RECORD
  5
1A4
100
AcDbSymbolTableRecord
100
AcDbBlockTableRecord
  2
_WELLE_00065
  0
BLOCK_RECORD
  5
1A5
100
AcDbSymbolTableRecord
100
AcDbBlockTableRecord
  2
WELLE_00066
  0
BLOCK_RECORD
  5
1A6
100
AcDbSymbolTableRecord
100
AcDbBlockTableRecord
  2
_WELLE_00067
  0
BLOCK_RECORD
  5
1A7
100
AcDbSymbolTableRecord
100
AcDbBlockTableRecord
  2
WELLE_00068
  0
BLOCK_RECORD
  5
1A8
100
AcDbSymbolTableRecord
100
AcDbBlockTableRecord
  2
_WELLE_00069
  0
BLOCK_RECORD
  5
1A9
100
AcDbSymbolTableRecord
100
AcDbBlockTableRecord
  2
SCHUTZHAUBE_00070
  0
BLOCK_RECORD
  5
1AA
100
AcDbSymbolTableRecord
100
AcDbBlockTableRecord
  2
SCHUTZHAUBE_00071
  0
BLOCK_RECORD
  5
1AB
100
AcDbSymbolTableRecord
100
AcDbBlockTableRecord
  2
_SCHUTZHAUBE_00072
  0
BLOCK_RECORD
  5
1AC
100
AcDbSymbolTableRecord
100
AcDbBlockTableRecord
  2
SCHUTZHAUBE_00073
  0
BLOCK_RECORD
  5
1AD
100
AcDbSymbolTableRecord
100
AcDbBlockTableRecord
  2
_SCHUTZHAUBE_00074
  0
BLOCK_RECORD
  5
1AE
100
AcDbSymbolTableRecord
100
AcDbBlockTableRecord
  2
FLIEHGEWICHT_00075
  0
BLOCK_RECORD
  5
1AF
100
AcDbSymbolTableRecord
100
AcDbBlockTableRecord
  2
FLIEHGEWICHT_00076
  0
BLOCK_RECORD
  5
1B0
100
AcDbSymbolTableRecord
100
AcDbBlockTableRecord
  2
FLIEHGEWICHT_00077
  0
BLOCK_RECORD
  5
1B1
100
AcDbSymbolTableRecord
100
AcDbBlockTableRecord
  2
_FLIEHGEWICHT_00078
  0
BLOCK_RECORD
  5
1B2
100
AcDbSymbolTableRecord
100
AcDbBlockTableRecord
  2
FLIEHGEWICHT_00079
  0
BLOCK_RECORD
  5
1B3
100
AcDbSymbolTableRecord
100
AcDbBlockTableRecord
  2
_FLIEHGEWICHT_00080
  0
BLOCK_RECORD
  5
1B4
100
AcDbSymbolTableRecord
100
AcDbBlockTableRecord
  2
FLIEHGEWICHT_00081
  0
BLOCK_RECORD
  5
1B5
100
AcDbSymbolTableRecord
100
AcDbBlockTableRecord
  2
FLIEHGEWICHT_00082
  0
BLOCK_RECORD
  5
1B6
100
AcDbSymbolTableRecord
100
AcDbBlockTableRecord
  2
_FLIEHGEWICHT_00083
  0
BLOCK_RECORD
  5
1B7
100
AcDbSymbolTableRecord
100
AcDbBlockTableRecord
  2
FLIEHGEWICHT_00084
  0
BLOCK_RECORD
  5
1B8
100
AcDbSymbolTableRecord
100
AcDbBlockTableRecord
  2
_FLIEHGEWICHT_00085
  0
BLOCK_RECORD
  5
1B9
100
AcDbSymbolTableRecord
100
AcDbBlockTableRecord
  2
ANSCHLUßFLANSCH_00086
  0
BLOCK_RECORD
  5
1BA
100
AcDbSymbolTableRecord
100
AcDbBlockTableRecord
  2
_ANSCHLUßFLANSCH_00087
  0
ENDTAB
  0
ENDSEC
  0
SECTION
  2
BLOCKS
  0
BLOCK
  5
1BB
100
AcDbEntity
  8
0
100
AcDbBlockBegin
  2
*Model_Space
 70
     0
 10
0.0
 20
0.0
 30
0.0
  3
*Model_Space
  1

  0
ENDBLK
  5
1BC
100
AcDbEntity
  8
0
100
AcDbBlockEnd
  0
BLOCK
  5
1BD
100
AcDbEntity
100
AcDbBlockBegin
 67
     1
  8
0
  2
*Paper_Space
 70
     0
 10
0.0
 20
0.0
 30
0.0
  3
*Paper_Space
  1

  0
ENDBLK
  5
1BE
100
AcDbEntity
100
AcDbBlockEnd
 67
     1
  8
0
  0
BLOCK
  5
1BF
100
AcDbEntity
  8
0
100
AcDbBlockBegin
  2
ANS3D02_00001
 70
    64
 10
0.0
 20
0.0
 30
0.0
  3
ANS3D02_00001
  0
INSERT
  5
1C0
100
AcDbEntity
  8
0
100
AcDbBlockReference
  2
FIG3D02_00002
 10
0.0
 20
0.0
 30
0.0
  0
ENDBLK
  5
1C1
100
AcDbEntity
  8
0
100
AcDbBlockEnd
  0
BLOCK
  5
1C2
100
AcDbEntity
  8
0
100
AcDbBlockBegin
  2
FIG3D02_00002
 70
    64
 10
0.0
 20
0.0
 30
0.0
  3
FIG3D02_00002
  0
INSERT
  5
1C3
100
AcDbEntity
  8
0
100
AcDbBlockReference
  2
JR100_00003
 10
0.0
 20
0.0
 30
0.0
  0
ENDBLK
  5
1C4
100
AcDbEntity
  8
0
100
AcDbBlockEnd
  0
BLOCK
  5
1C5
100
AcDbEntity
  8
0
100
AcDbBlockBegin
  2
JR100_00003
 70
    64
 10
0.0
 20
0.0
 30
0.0
  3
JR100_00003
  0
INSERT
  5
1C6
100
AcDbEntity
  8
0
100
AcDbBlockReference
  2
GEHÄUSE_00004
 10
0.0
 20
0.0
 30
0.0
  0
INSERT
  5
1C7
100
AcDbEntity
  8
0
100
AcDbBlockReference
  2
SCHUTZHAUBE_00006
 10
0.0
 20
0.0
 30
0.0
  0
INSERT
  5
1C8
100
AcDbEntity
  8
0
100
AcDbBlockReference
  2
FLIEHGEWICHT_00009
 10
0.0
 20
0.0
 30
0.0
  0
INSERT
  5
1C9
100
AcDbEntity
  8
0
100
AcDbBlockReference
  2
ANSCHLUßFLANSCH_00013
 10
0.0
 20
0.0
 30
0.0
  0
ENDBLK
  5
1CA
100
AcDbEntity
  8
0
100
AcDbBlockEnd
  0
BLOCK
  5
1CB
100
AcDbEntity
  8
0
100
AcDbBlockBegin
  2
GEHÄUSE_00004
 70
    64
 10
0.0
 20
0.0
 30
0.0
  3
GEHÄUSE_00004
  0
INSERT
  5
1CC
100
AcDbEntity
  8
0
100
AcDbBlockReference
  2
_GEHÄUSE_00005
 10
653.24588175
 20
-197.22989533
 30
0.0
  0
ENDBLK
  5
1CD
100
AcDbEntity
  8
0
100
AcDbBlockEnd
  0
BLOCK
  5
1CE
100
AcDbEntity
  8
0
100
AcDbBlockBegin
  2
_GEHÄUSE_00005
 70
    64
 10
653.24588175
 20
-197.22989533
 30
0.0
  3
_GEHÄUSE_00005
  0
LINE
  5
1CF
100
AcDbEntity
  8
0
100
AcDbLine
 10
653.24588175
 20
-197.22989533
 30
0.0
 11
653.24588175
 21
-187.22989533
 31
0.0
  0
LINE
  5
1D0
100
AcDbEntity
  8
0
100
AcDbLine
 10
-256.75411825
 20
-197.22989533
 30
0.0
 11
653.24588175
 21
-197.22989533
 31
0.0
  0
LINE
  5
1D1
100
AcDbEntity
  8
0
100
AcDbLine
 10
-256.75411825
 20
-197.22989533
 30
0.0
 11
-256.75411825
 21
-187.22989533
 31
0.0
  0
ENDBLK
  5
1D2
100
AcDbEntity
  8
0
100
AcDbBlockEnd
  0
BLOCK
  5
1D3
100
AcDbEntity
  8
0
100
AcDbBlockBegin
  2
SCHUTZHAUBE_00006
 70
    64
 10
0.0
 20
0.0
 30
0.0
  3
SCHUTZHAUBE_00006
  0
INSERT
  5
1D4
100
AcDbEntity
  8
0
100
AcDbBlockReference
  2
SCHUTZHAUBE_00007
 10
0.0
 20
0.0
 30
0.0
  0
ENDBLK
  5
1D5
100
AcDbEntity
  8
0
100
AcDbBlockEnd
  0
BLOCK
  5
1D6
100
AcDbEntity
  8
0
100
AcDbBlockBegin
  2
SCHUTZHAUBE_00007
 70
    64
 10
0.0
 20
0.0
 30
0.0
  3
SCHUTZHAUBE_00007
  0
INSERT
  5
1D7
100
AcDbEntity
  8
0
100
AcDbBlockReference
  2
_SCHUTZHAUBE_00008
 10
-21.75411825
 20
412.77010467
 30
0.0
  0
ENDBLK
  5
1D8
100
AcDbEntity
  8
0
100
AcDbBlockEnd
  0
BLOCK
  5
1D9
100
AcDbEntity
  8
0
100
AcDbBlockBegin
  2
_SCHUTZHAUBE_00008
 70
    64
 10
-21.75411825
 20
412.77010467
 30
0.0
  3
_SCHUTZHAUBE_00008
  0
CIRCLE
  5
1DA
100
AcDbEntity
  8
0
100
AcDbCircle
 10
-21.75411825
 20
277.77010467
 30
0.0
 40
135.00000000
  0
POLYLINE
  5
1DB
100
AcDbEntity
  8
0
100
AcDb2dPolyline
 66
     1
  0
VERTEX
  5
1DC
100
AcDbEntity
  8
0
100
AcDbVertex
100
AcDb2dVertex
 10
-396.75411825
 20
456.59853179
 30
0.0
  0
VERTEX
  5
1DD
100
AcDbEntity
  8
0
100
AcDbVertex
100
AcDb2dVertex
 10
-396.75411825
 20
-187.22989533
 30
0.0
  0
VERTEX
  5
1DE
100
AcDbEntity
  8
0
100
AcDbVertex
100
AcDb2dVertex
 10
793.24588175
 20
-187.22989533
 30
0.0
  0
VERTEX
  5
1DF
100
AcDbEntity
  8
0
100
AcDbVertex
100
AcDb2dVertex
 10
793.24588175
 20
456.59853179
 30
0.0
  0
VERTEX
  5
1E0
100
AcDbEntity
  8
0
100
AcDbVertex
100
AcDb2dVertex
 10
592.07430888
 20
657.77010467
 30
0.0
  0
VERTEX
  5
1E1
100
AcDbEntity
  8
0
100
AcDbVertex
100
AcDb2dVertex
 10
-195.58254537
 20
657.77010467
 30
0.0
  0
VERTEX
  5
1E2
100
AcDbEntity
  8
0
100
AcDbVertex
100
AcDb2dVertex
 10
-396.75411825
 20
456.59853179
 30
0.0
  0
SEQEND
  5
1E3
100
AcDbEntity
  8
0
  0
ENDBLK
  5
1E4
100
AcDbEntity
  8
0
100
AcDbBlockEnd
  0
BLOCK
  5
1E5
100
AcDbEntity
  8
0
100
AcDbBlockBegin
  2
FLIEHGEWICHT_00009
 70
    64
 10
0.0
 20
0.0
 30
0.0
  3
FLIEHGEWICHT_00009
  0
INSERT
  5
1E6
100
AcDbEntity
  8
0
100
AcDbBlockReference
  2
FLIEHGEWICHT_00010
 10
0.0
 20
0.0
 30
0.0
  0
ENDBLK
  5
1E7
100
AcDbEntity
  8
0
100
AcDbBlockEnd
  0
BLOCK
  5
1E8
100
AcDbEntity
  8
0
100
AcDbBlockBegin
  2
FLIEHGEWICHT_00010
 70
    64
 10
0.0
 20
0.0
 30
0.0
  3
FLIEHGEWICHT_00010
  0
INSERT
  5
1E9
100
AcDbEntity
  8
0
100
AcDbBlockReference
  2
FLIEHGEWICHT_00011
 10
0.0
 20
0.0
 30
0.0
  0
ENDBLK
  5
1EA
100
AcDbEntity
  8
0
100
AcDbBlockEnd
  0
BLOCK
  5
1EB
100
AcDbEntity
  8
0
100
AcDbBlockBegin
  2
FLIEHGEWICHT_00011
 70
    64
 10
0.0
 20
0.0
 30
0.0
  3
FLIEHGEWICHT_00011
  0
INSERT
  5
1EC
100
AcDbEntity
  8
0
100
AcDbBlockReference
  2
_FLIEHGEWICHT_00012
 10
32.14972954
 20
390.55031213
 30
0.0
  0
ENDBLK
  5
1ED
100
AcDbEntity
  8
0
100
AcDbBlockEnd
  0
BLOCK
  5
1EE
100
AcDbEntity
  8
0
100
AcDbBlockBegin
  2
_FLIEHGEWICHT_00012
 70
    64
 10
32.14972954
 20
390.55031213
 30
0.0
  3
_FLIEHGEWICHT_00012
  0
LINE
  5
1EF
100
AcDbEntity
  8
0
100
AcDbLine
 10
32.14972954
 20
390.55031213
 30
0.0
 11
23.78417633
 21
404.85772691
 31
0.0
  0
LINE
  5
1F0
100
AcDbEntity
  8
0
100
AcDbLine
 10
23.78417633
 20
150.68248243
 30
0.0
 11
32.14972954
 21
164.98989721
 31
0.0
  0
ENDBLK
  5
1F1
100
AcDbEntity
  8
0
100
AcDbBlockEnd
  0
BLOCK
  5
1F2
100
AcDbEntity
  8
0
100
AcDbBlockBegin
  2
ANSCHLUßFLANSCH_00013
 70
    64
 10
0.0
 20
0.0
 30
0.0
  3
ANSCHLUßFLANSCH_00013
  0
INSERT
  5
1F3
100
AcDbEntity
  8
0
100
AcDbBlockReference
  2
_ANSCHLUßFLANSCH_00014
 10
-122.45698729
 20
328.73259880
 30
0.0
  0
ENDBLK
  5
1F4
100
AcDbEntity
  8
0
100
AcDbBlockEnd
  0
BLOCK
  5
1F5
100
AcDbEntity
  8
0
100
AcDbBlockBegin
  2
_ANSCHLUßFLANSCH_00014
 70
    64
 10
-122.45698729
 20
328.73259880
 30
0.0
  3
_ANSCHLUßFLANSCH_00014
  0
CIRCLE
  5
1F6
100
AcDbEntity
  8
0
100
AcDbCircle
 10
-122.45698729
 20
319.48259880
 30
0.0
 40
9.25000000
  0
CIRCLE
  5
1F7
100
AcDbEntity
  8
0
100
AcDbCircle
 10
-122.45698729
 20
236.05761054
 30
0.0
 40
9.25000000
  0
CIRCLE
  5
1F8
100
AcDbEntity
  8
0
100
AcDbCircle
 10
-63.46661238
 20
177.06723562
 30
0.0
 40
9.25000000
  0
CIRCLE
  5
1F9
100
AcDbEntity
  8
0
100
AcDbCircle
 10
19.95837588
 20
177.06723562
 30
0.0
 40
9.25000000
  0
CIRCLE
  5
1FA
100
AcDbEntity
  8
0
100
AcDbCircle
 10
78.94875080
 20
236.05761054
 30
0.0
 40
9.25000000
  0
CIRCLE
  5
1FB
100
AcDbEntity
  8
0
100
AcDbCircle
 10
78.94875080
 20
319.48259880
 30
0.0
 40
9.25000000
  0
CIRCLE
  5
1FC
100
AcDbEntity
  8
0
100
AcDbCircle
 10
19.95837588
 20
378.47297371
 30
0.0
 40
9.25000000
  0
CIRCLE
  5
1FD
100
AcDbEntity
  8
0
100
AcDbCircle
 10
-63.46661238
 20
378.47297371
 30
0.0
 40
9.25000000
  0
CIRCLE
  5
1FE
100
AcDbEntity
  8
0
100
AcDbCircle
 10
-21.75411825
 20
277.77010467
 30
0.0
 40
125.00000000
  0
ENDBLK
  5
1FF
100
AcDbEntity
  8
0
100
AcDbBlockEnd
  0
BLOCK
  5
200
100
AcDbEntity
  8
0
100
AcDbBlockBegin
  2
ANS3D03_00015
 70
    64
 10
0.0
 20
0.0
 30
0.0
  3
ANS3D03_00015
  0
INSERT
  5
201
100
AcDbEntity
  8
0
100
AcDbBlockReference
  2
FIG3D03_00016
 10
0.0
 20
0.0
 30
0.0
  0
ENDBLK
  5
202
100
AcDbEntity
  8
0
100
AcDbBlockEnd
  0
BLOCK
  5
203
100
AcDbEntity
  8
0
100
AcDbBlockBegin
  2
FIG3D03_00016
 70
    64
 10
0.0
 20
0.0
 30
0.0
  3
FIG3D03_00016
  0
INSERT
  5
204
100
AcDbEntity
  8
0
100
AcDbBlockReference
  2
JR100_00017
 10
0.0
 20
0.0
 30
0.0
  0
ENDBLK
  5
205
100
AcDbEntity
  8
0
100
AcDbBlockEnd
  0
BLOCK
  5
206
100
AcDbEntity
  8
0
100
AcDbBlockBegin
  2
JR100_00017
 70
    64
 10
0.0
 20
0.0
 30
0.0
  3
JR100_00017
  0
INSERT
  5
207
100
AcDbEntity
  8
0
100
AcDbBlockReference
  2
GEHÄUSE_00018
 10
0.0
 20
0.0
 30
0.0
  0
INSERT
  5
208
100
AcDbEntity
  8
0
100
AcDbBlockReference
  2
SCHUTZHAUBE_00020
 10
0.0
 20
0.0
 30
0.0
  0
ENDBLK
  5
209
100
AcDbEntity
  8
0
100
AcDbBlockEnd
  0
BLOCK
  5
20A
100
AcDbEntity
  8
0
100
AcDbBlockBegin
  2
GEHÄUSE_00018
 70
    64
 10
0.0
 20
0.0
 30
0.0
  3
GEHÄUSE_00018
  0
INSERT
  5
20B
100
AcDbEntity
  8
0
100
AcDbBlockReference
  2
_GEHÄUSE_00019
 10
1807.60674527
 20
-197.22989533
 30
0.0
  0
ENDBLK
  5
20C
100
AcDbEntity
  8
0
100
AcDbBlockEnd
  0
BLOCK
  5
20D
100
AcDbEntity
  8
0
100
AcDbBlockBegin
  2
_GEHÄUSE_00019
 70
    64
 10
1807.60674527
 20
-197.22989533
 30
0.0
  3
_GEHÄUSE_00019
  0
LINE
  5
20E
100
AcDbEntity
  8
0
100
AcDbLine
 10
1807.60674527
 20
-197.22989533
 30
0.0
 11
1807.60674527
 21
-156.22989533
 31
0.0
  0
LINE
  5
20F
100
AcDbEntity
  8
0
100
AcDbLine
 10
1717.60674527
 20
-156.22989533
 30
0.0
 11
1807.60674527
 21
-156.22989533
 31
0.0
  0
LINE
  5
210
100
AcDbEntity
  8
0
100
AcDbLine
 10
1717.60674527
 20
-50.22989533
 30
0.0
 11
1717.60674527
 21
-156.22989533
 31
0.0
  0
LINE
  5
211
100
AcDbEntity
  8
0
100
AcDbLine
 10
1807.60674527
 20
-50.22989533
 30
0.0
 11
1717.60674527
 21
-50.22989533
 31
0.0
  0
LINE
  5
212
100
AcDbEntity
  8
0
100
AcDbLine
 10
1807.60674527
 20
-50.22989533
 30
0.0
 11
1807.60674527
 21
535.77010467
 31
0.0
  0
LINE
  5
213
100
AcDbEntity
  8
0
100
AcDbLine
 10
1307.60674527
 20
535.77010467
 30
0.0
 11
1807.60674527
 21
535.77010467
 31
0.0
  0
LINE
  5
214
100
AcDbEntity
  8
0
100
AcDbLine
 10
1307.60674527
 20
-50.22989533
 30
0.0
 11
1307.60674527
 21
535.77010467
 31
0.0
  0
LINE
  5
215
100
AcDbEntity
  8
0
100
AcDbLine
 10
1397.60674527
 20
-50.22989533
 30
0.0
 11
1307.60674527
 21
-50.22989533
 31
0.0
  0
LINE
  5
216
100
AcDbEntity
  8
0
100
AcDbLine
 10
1397.60674527
 20
-156.22989533
 30
0.0
 11
1397.60674527
 21
-50.22989533
 31
0.0
  0
LINE
  5
217
100
AcDbEntity
  8
0
100
AcDbLine
 10
1307.60674527
 20
-156.22989533
 30
0.0
 11
1397.60674527
 21
-156.22989533
 31
0.0
  0
LINE
  5
218
100
AcDbEntity
  8
0
100
AcDbLine
 10
1307.60674527
 20
-197.22989533
 30
0.0
 11
1307.60674527
 21
-156.22989533
 31
0.0
  0
LINE
  5
219
100
AcDbEntity
  8
0
100
AcDbLine
 10
1307.60674527
 20
-197.22989533
 30
0.0
 11
1395.60674527
 21
-197.22989533
 31
0.0
  0
LINE
  5
21A
100
AcDbEntity
  8
0
100
AcDbLine
 10
1395.60674527
 20
-192.22989533
 30
0.0
 11
1395.60674527
 21
-197.22989533
 31
0.0
  0
LINE
  5
21B
100
AcDbEntity
  8
0
100
AcDbLine
 10
1719.60674527
 20
-192.22989533
 30
0.0
 11
1395.60674527
 21
-192.22989533
 31
0.0
  0
LINE
  5
21C
100
AcDbEntity
  8
0
100
AcDbLine
 10
1719.60674527
 20
-197.22989533
 30
0.0
 11
1719.60674527
 21
-192.22989533
 31
0.0
  0
LINE
  5
21D
100
AcDbEntity
  8
0
100
AcDbLine
 10
1719.60674527
 20
-197.22989533
 30
0.0
 11
1807.60674527
 21
-197.22989533
 31
0.0
  0
ENDBLK
  5
21E
100
AcDbEntity
  8
0
100
AcDbBlockEnd
  0
BLOCK
  5
21F
100
AcDbEntity
  8
0
100
AcDbBlockBegin
  2
SCHUTZHAUBE_00020
 70
    64
 10
0.0
 20
0.0
 30
0.0
  3
SCHUTZHAUBE_00020
  0
INSERT
  5
220
100
AcDbEntity
  8
0
100
AcDbBlockReference
  2
SCHUTZHAUBE_00021
 10
0.0
 20
0.0
 30
0.0
  0
INSERT
  5
221
100
AcDbEntity
  8
0
100
AcDbBlockReference
  2
SCHUTZHAUBE_00023
 10
0.0
 20
0.0
 30
0.0
  0
ENDBLK
  5
222
100
AcDbEntity
  8
0
100
AcDbBlockEnd
  0
BLOCK
  5
223
100
AcDbEntity
  8
0
100
AcDbBlockBegin
  2
SCHUTZHAUBE_00021
 70
    64
 10
0.0
 20
0.0
 30
0.0
  3
SCHUTZHAUBE_00021
  0
INSERT
  5
224
100
AcDbEntity
  8
0
100
AcDbBlockReference
  2
_SCHUTZHAUBE_00022
 10
992.60674527
 20
456.59853179
 30
0.0
  0
ENDBLK
  5
225
100
AcDbEntity
  8
0
100
AcDbBlockEnd
  0
BLOCK
  5
226
100
AcDbEntity
  8
0
100
AcDbBlockBegin
  2
_SCHUTZHAUBE_00022
 70
    64
 10
992.60674527
 20
456.59853179
 30
0.0
  3
_SCHUTZHAUBE_00022
  0
LINE
  5
227
100
AcDbEntity
  8
0
100
AcDbLine
 10
992.60674527
 20
456.59853179
 30
0.0
 11
1307.60674527
 21
456.59853179
 31
0.0
  0
LINE
  5
228
100
AcDbEntity
  8
0
100
AcDbLine
 10
1307.60674527
 20
-187.22989533
 30
0.0
 11
1307.60674527
 21
456.59853179
 31
0.0
  0
LINE
  5
229
100
AcDbEntity
  8
0
100
AcDbLine
 10
1307.60674527
 20
-187.22989533
 30
0.0
 11
992.60674527
 21
-187.22989533
 31
0.0
  0
LINE
  5
22A
100
AcDbEntity
  8
0
100
AcDbLine
 10
992.60674527
 20
456.59853179
 30
0.0
 11
992.60674527
 21
-187.22989533
 31
0.0
  0
LINE
  5
22B
100
AcDbEntity
  8
0
100
AcDbLine
 10
992.60674527
 20
657.77010467
 30
0.0
 11
992.60674527
 21
456.59853179
 31
0.0
  0
LINE
  5
22C
100
AcDbEntity
  8
0
100
AcDbLine
 10
1309.60674527
 20
657.77010467
 30
0.0
 11
992.60674527
 21
657.77010467
 31
0.0
  0
LINE
  5
22D
100
AcDbEntity
  8
0
100
AcDbLine
 10
1309.60674527
 20
535.77010467
 30
0.0
 11
1309.60674527
 21
657.77010467
 31
0.0
  0
LINE
  5
22E
100
AcDbEntity
  8
0
100
AcDbLine
 10
1307.60674527
 20
535.77010467
 30
0.0
 11
1309.60674527
 21
535.77010467
 31
0.0
  0
LINE
  5
22F
100
AcDbEntity
  8
0
100
AcDbLine
 10
1307.60674527
 20
456.59853179
 30
0.0
 11
1307.60674527
 21
535.77010467
 31
0.0
  0
ENDBLK
  5
230
100
AcDbEntity
  8
0
100
AcDbBlockEnd
  0
BLOCK
  5
231
100
AcDbEntity
  8
0
100
AcDbBlockBegin
  2
SCHUTZHAUBE_00023
 70
    64
 10
0.0
 20
0.0
 30
0.0
  3
SCHUTZHAUBE_00023
  0
INSERT
  5
232
100
AcDbEntity
  8
0
100
AcDbBlockReference
  2
_SCHUTZHAUBE_00024
 10
1807.60674527
 20
535.77010467
 30
0.0
  0
ENDBLK
  5
233
100
AcDbEntity
  8
0
100
AcDbBlockEnd
  0
BLOCK
  5
234
100
AcDbEntity
  8
0
100
AcDbBlockBegin
  2
_SCHUTZHAUBE_00024
 70
    64
 10
1807.60674527
 20
535.77010467
 30
0.0
  3
_SCHUTZHAUBE_00024
  0
POLYLINE
  5
235
100
AcDbEntity
  8
0
100
AcDb2dPolyline
 66
     1
  0
VERTEX
  5
236
100
AcDbEntity
  8
0
100
AcDbVertex
100
AcDb2dVertex
 10
1807.60674527
 20
535.77010467
 30
0.0
  0
VERTEX
  5
237
100
AcDbEntity
  8
0
100
AcDbVertex
100
AcDb2dVertex
 10
1805.60674527
 20
535.77010467
 30
0.0
  0
VERTEX
  5
238
100
AcDbEntity
  8
0
100
AcDbVertex
100
AcDb2dVertex
 10
1805.60674527
 20
657.77010467
 30
0.0
  0
VERTEX
  5
239
100
AcDbEntity
  8
0
100
AcDbVertex
100
AcDb2dVertex
 10
2122.60674527
 20
657.77010467
 30
0.0
  0
VERTEX
  5
23A
100
AcDbEntity
  8
0
100
AcDbVertex
100
AcDb2dVertex
 10
2122.60674527
 20
456.59853179
 30
0.0
  0
VERTEX
  5
23B
100
AcDbEntity
  8
0
100
AcDbVertex
100
AcDb2dVertex
 10
1807.60674527
 20
456.59853179
 30
0.0
  0
VERTEX
  5
23C
100
AcDbEntity
  8
0
100
AcDbVertex
100
AcDb2dVertex
 10
1807.60674527
 20
535.77010467
 30
0.0
  0
SEQEND
  5
23D
100
AcDbEntity
  8
0
  0
LINE
  5
23E
100
AcDbEntity
  8
0
100
AcDbLine
 10
1807.60674527
 20
-187.22989533
 30
0.0
 11
1807.60674527
 21
456.59853179
 31
0.0
  0
LINE
  5
23F
100
AcDbEntity
  8
0
100
AcDbLine
 10
1807.60674527
 20
-187.22989533
 30
0.0
 11
2122.60674527
 21
-187.22989533
 31
0.0
  0
LINE
  5
240
100
AcDbEntity
  8
0
100
AcDbLine
 10
2122.60674527
 20
456.59853179
 30
0.0
 11
2122.60674527
 21
-187.22989533
 31
0.0
  0
ENDBLK
  5
241
100
AcDbEntity
  8
0
100
AcDbBlockEnd
  0
BLOCK
  5
242
100
AcDbEntity
  8
0
100
AcDbBlockBegin
  2
ANS3D04_00025
 70
    64
 10
0.0
 20
0.0
 30
0.0
  3
ANS3D04_00025
  0
INSERT
  5
243
100
AcDbEntity
  8
0
100
AcDbBlockReference
  2
FIG3D04_00026
 10
0.0
 20
0.0
 30
0.0
  0
ENDBLK
  5
244
100
AcDbEntity
  8
0
100
AcDbBlockEnd
  0
BLOCK
  5
245
100
AcDbEntity
  8
0
100
AcDbBlockBegin
  2
FIG3D04_00026
 70
    64
 10
0.0
 20
0.0
 30
0.0
  3
FIG3D04_00026
  0
INSERT
  5
246
100
AcDbEntity
  8
0
100
AcDbBlockReference
  2
JR100_00027
 10
0.0
 20
0.0
 30
0.0
  0
ENDBLK
  5
247
100
AcDbEntity
  8
0
100
AcDbBlockEnd
  0
BLOCK
  5
248
100
AcDbEntity
  8
0
100
AcDbBlockBegin
  2
JR100_00027
 70
    64
 10
0.0
 20
0.0
 30
0.0
  3
JR100_00027
  0
INSERT
  5
249
100
AcDbEntity
  8
0
100
AcDbBlockReference
  2
GEHÄUSE_00028
 10
0.0
 20
0.0
 30
0.0
  0
INSERT
  5
24A
100
AcDbEntity
  8
0
100
AcDbBlockReference
  2
SCHUTZHAUBE_00030
 10
0.0
 20
0.0
 30
0.0
  0
ENDBLK
  5
24B
100
AcDbEntity
  8
0
100
AcDbBlockEnd
  0
BLOCK
  5
24C
100
AcDbEntity
  8
0
100
AcDbBlockBegin
  2
GEHÄUSE_00028
 70
    64
 10
0.0
 20
0.0
 30
0.0
  3
GEHÄUSE_00028
  0
INSERT
  5
24D
100
AcDbEntity
  8
0
100
AcDbBlockReference
  2
_GEHÄUSE_00029
 10
-256.75411825
 20
-751.26252189
 30
0.0
  0
ENDBLK
  5
24E
100
AcDbEntity
  8
0
100
AcDbBlockEnd
  0
BLOCK
  5
24F
100
AcDbEntity
  8
0
100
AcDbBlockBegin
  2
_GEHÄUSE_00029
 70
    64
 10
-256.75411825
 20
-751.26252189
 30
0.0
  3
_GEHÄUSE_00029
  0
LINE
  5
250
100
AcDbEntity
  8
0
100
AcDbLine
 10
-256.75411825
 20
-751.26252189
 30
0.0
 11
-256.75411825
 21
-1247.26252189
 31
0.0
  0
LINE
  5
251
100
AcDbEntity
  8
0
100
AcDbLine
 10
653.24588175
 20
-1247.26252189
 30
0.0
 11
653.24588175
 21
-751.26252189
 31
0.0
  0
ENDBLK
  5
252
100
AcDbEntity
  8
0
100
AcDbBlockEnd
  0
BLOCK
  5
253
100
AcDbEntity
  8
0
100
AcDbBlockBegin
  2
SCHUTZHAUBE_00030
 70
    64
 10
0.0
 20
0.0
 30
0.0
  3
SCHUTZHAUBE_00030
  0
INSERT
  5
254
100
AcDbEntity
  8
0
100
AcDbBlockReference
  2
SCHUTZHAUBE_00031
 10
0.0
 20
0.0
 30
0.0
  0
INSERT
  5
255
100
AcDbEntity
  8
0
100
AcDbBlockReference
  2
SCHUTZHAUBE_00033
 10
0.0
 20
0.0
 30
0.0
  0
ENDBLK
  5
256
100
AcDbEntity
  8
0
100
AcDbBlockEnd
  0
BLOCK
  5
257
100
AcDbEntity
  8
0
100
AcDbBlockBegin
  2
SCHUTZHAUBE_00031
 70
    64
 10
0.0
 20
0.0
 30
0.0
  3
SCHUTZHAUBE_00031
  0
INSERT
  5
258
100
AcDbEntity
  8
0
100
AcDbBlockReference
  2
_SCHUTZHAUBE_00032
 10
-317.58254537
 20
-751.26252189
 30
0.0
  0
ENDBLK
  5
259
100
AcDbEntity
  8
0
100
AcDbBlockEnd
  0
BLOCK
  5
25A
100
AcDbEntity
  8
0
100
AcDbBlockBegin
  2
_SCHUTZHAUBE_00032
 70
    64
 10
-317.58254537
 20
-751.26252189
 30
0.0
  3
_SCHUTZHAUBE_00032
  0
POLYLINE
  5
25B
100
AcDbEntity
  8
0
100
AcDb2dPolyline
 66
     1
  0
VERTEX
  5
25C
100
AcDbEntity
  8
0
100
AcDbVertex
100
AcDb2dVertex
 10
-317.58254537
 20
-751.26252189
 30
0.0
  0
VERTEX
  5
25D
100
AcDbEntity
  8
0
100
AcDbVertex
100
AcDb2dVertex
 10
-195.58254537
 20
-751.26252189
 30
0.0
  0
VERTEX
  5
25E
100
AcDbEntity
  8
0
100
AcDbVertex
100
AcDb2dVertex
 10
-195.58254537
 20
-434.26252189
 30
0.0
  0
VERTEX
  5
25F
100
AcDbEntity
  8
0
100
AcDbVertex
100
AcDb2dVertex
 10
-396.75411825
 20
-434.26252189
 30
0.0
  0
VERTEX
  5
260
100
AcDbEntity
  8
0
100
AcDbVertex
100
AcDb2dVertex
 10
-396.75411825
 20
-749.26252189
 30
0.0
  0
VERTEX
  5
261
100
AcDbEntity
  8
0
100
AcDbVertex
100
AcDb2dVertex
 10
-317.58254537
 20
-749.26252189
 30
0.0
  0
VERTEX
  5
262
100
AcDbEntity
  8
0
100
AcDbVertex
100
AcDb2dVertex
 10
-317.58254537
 20
-751.26252189
 30
0.0
  0
SEQEND
  5
263
100
AcDbEntity
  8
0
  0
LINE
  5
264
100
AcDbEntity
  8
0
100
AcDbLine
 10
592.07430888
 20
-434.26252189
 30
0.0
 11
-195.58254537
 21
-434.26252189
 31
0.0
  0
LINE
  5
265
100
AcDbEntity
  8
0
100
AcDbLine
 10
592.07430888
 20
-434.26252189
 30
0.0
 11
592.07430888
 21
-751.26252189
 31
0.0
  0
POLYLINE
  5
266
100
AcDbEntity
  8
0
100
AcDb2dPolyline
 66
     1
  0
VERTEX
  5
267
100
AcDbEntity
  8
0
100
AcDbVertex
100
AcDb2dVertex
 10
-195.58254537
 20
-751.26252189
 30
0.0
  0
VERTEX
  5
268
100
AcDbEntity
  8
0
100
AcDbVertex
100
AcDb2dVertex
 10
592.07430888
 20
-751.26252189
 30
0.0
  0
VERTEX
  5
269
100
AcDbEntity
  8
0
100
AcDbVertex
100
AcDb2dVertex
 10
714.07430888
 20
-751.26252189
 30
0.0
  0
VERTEX
  5
26A
100
AcDbEntity
  8
0
100
AcDbVertex
100
AcDb2dVertex
 10
714.07430888
 20
-749.26252189
 30
0.0
  0
VERTEX
  5
26B
100
AcDbEntity
  8
0
100
AcDbVertex
100
AcDb2dVertex
 10
793.24588175
 20
-749.26252189
 30
0.0
  0
VERTEX
  5
26C
100
AcDbEntity
  8
0
100
AcDbVertex
100
AcDb2dVertex
 10
793.24588175
 20
-434.26252189
 30
0.0
  0
VERTEX
  5
26D
100
AcDbEntity
  8
0
100
AcDbVertex
100
AcDb2dVertex
 10
592.07430888
 20
-434.26252189
 30
0.0
  0
SEQEND
  5
26E
100
AcDbEntity
  8
0
  0
ENDBLK
  5
26F
100
AcDbEntity
  8
0
100
AcDbBlockEnd
  0
BLOCK
  5
270
100
AcDbEntity
  8
0
100
AcDbBlockBegin
  2
SCHUTZHAUBE_00033
 70
    64
 10
0.0
 20
0.0
 30
0.0
  3
SCHUTZHAUBE_00033
  0
INSERT
  5
271
100
AcDbEntity
  8
0
100
AcDbBlockReference
  2
_SCHUTZHAUBE_00034
 10
714.07430888
 20
-1247.26252189
 30
0.0
  0
ENDBLK
  5
272
100
AcDbEntity
  8
0
100
AcDbBlockEnd
  0
BLOCK
  5
273
100
AcDbEntity
  8
0
100
AcDbBlockBegin
  2
_SCHUTZHAUBE_00034
 70
    64
 10
714.07430888
 20
-1247.26252189
 30
0.0
  3
_SCHUTZHAUBE_00034
  0
POLYLINE
  5
274
100
AcDbEntity
  8
0
100
AcDb2dPolyline
 66
     1
  0
VERTEX
  5
275
100
AcDbEntity
  8
0
100
AcDbVertex
100
AcDb2dVertex
 10
714.07430888
 20
-1247.26252189
 30
0.0
  0
VERTEX
  5
276
100
AcDbEntity
  8
0
100
AcDbVertex
100
AcDb2dVertex
 10
714.07430888
 20
-1249.26252189
 30
0.0
  0
VERTEX
  5
277
100
AcDbEntity
  8
0
100
AcDbVertex
100
AcDb2dVertex
 10
793.24588175
 20
-1249.26252189
 30
0.0
  0
VERTEX
  5
278
100
AcDbEntity
  8
0
100
AcDbVertex
100
AcDb2dVertex
 10
793.24588175
 20
-1564.26252189
 30
0.0
  0
VERTEX
  5
279
100
AcDbEntity
  8
0
100
AcDbVertex
100
AcDb2dVertex
 10
592.07430888
 20
-1564.26252189
 30
0.0
  0
VERTEX
  5
27A
100
AcDbEntity
  8
0
100
AcDbVertex
100
AcDb2dVertex
 10
592.07430888
 20
-1247.26252189
 30
0.0
  0
VERTEX
  5
27B
100
AcDbEntity
  8
0
100
AcDbVertex
100
AcDb2dVertex
 10
714.07430888
 20
-1247.26252189
 30
0.0
  0
SEQEND
  5
27C
100
AcDbEntity
  8
0
  0
LINE
  5
27D
100
AcDbEntity
  8
0
100
AcDbLine
 10
-195.58254537
 20
-1247.26252189
 30
0.0
 11
592.07430888
 21
-1247.26252189
 31
0.0
  0
LINE
  5
27E
100
AcDbEntity
  8
0
100
AcDbLine
 10
-195.58254537
 20
-1247.26252189
 30
0.0
 11
-195.58254537
 21
-1564.26252189
 31
0.0
  0
POLYLINE
  5
27F
100
AcDbEntity
  8
0
100
AcDb2dPolyline
 66
     1
  0
VERTEX
  5
280
100
AcDbEntity
  8
0
100
AcDbVertex
100
AcDb2dVertex
 10
592.07430888
 20
-1564.26252189
 30
0.0
  0
VERTEX
  5
281
100
AcDbEntity
  8
0
100
AcDbVertex
100
AcDb2dVertex
 10
-195.58254537
 20
-1564.26252189
 30
0.0
  0
VERTEX
  5
282
100
AcDbEntity
  8
0
100
AcDbVertex
100
AcDb2dVertex
 10
-396.75411825
 20
-1564.26252189
 30
0.0
  0
VERTEX
  5
283
100
AcDbEntity
  8
0
100
AcDbVertex
100
AcDb2dVertex
 10
-396.75411825
 20
-1249.26252189
 30
0.0
  0
VERTEX
  5
284
100
AcDbEntity
  8
0
100
AcDbVertex
100
AcDb2dVertex
 10
-317.58254537
 20
-1249.26252189
 30
0.0
  0
VERTEX
  5
285
100
AcDbEntity
  8
0
100
AcDbVertex
100
AcDb2dVertex
 10
-317.58254537
 20
-1247.26252189
 30
0.0
  0
VERTEX
  5
286
100
AcDbEntity
  8
0
100
AcDbVertex
100
AcDb2dVertex
 10
-195.58254537
 20
-1247.26252189
 30
0.0
  0
SEQEND
  5
287
100
AcDbEntity
  8
0
  0
ENDBLK
  5
288
100
AcDbEntity
  8
0
100
AcDbBlockEnd
  0
BLOCK
  5
289
100
AcDbEntity
  8
0
100
AcDbBlockBegin
  2
ANS3D05_00035
 70
    64
 10
0.0
 20
0.0
 30
0.0
  3
ANS3D05_00035
  0
INSERT
  5
28A
100
AcDbEntity
  8
0
100
AcDbBlockReference
  2
FIG3D05_00036
 10
0.0
 20
0.0
 30
0.0
  0
ENDBLK
  5
28B
100
AcDbEntity
  8
0
100
AcDbBlockEnd
  0
BLOCK
  5
28C
100
AcDbEntity
  8
0
100
AcDbBlockBegin
  2
FIG3D05_00036
 70
    64
 10
0.0
 20
0.0
 30
0.0
  3
FIG3D05_00036
  0
INSERT
  5
28D
100
AcDbEntity
  8
0
100
AcDbBlockReference
  2
JR100_00037
 10
0.0
 20
0.0
 30
0.0
  0
ENDBLK
  5
28E
100
AcDbEntity
  8
0
100
AcDbBlockEnd
  0
BLOCK
  5
28F
100
AcDbEntity
  8
0
100
AcDbBlockBegin
  2
JR100_00037
 70
    64
 10
0.0
 20
0.0
 30
0.0
  3
JR100_00037
  0
INSERT
  5
290
100
AcDbEntity
  8
0
100
AcDbBlockReference
  2
GEHÄUSE_00038
 10
0.0
 20
0.0
 30
0.0
  0
INSERT
  5
291
100
AcDbEntity
  8
0
100
AcDbBlockReference
  2
SCHUTZHAUBE_00040
 10
0.0
 20
0.0
 30
0.0
  0
INSERT
  5
292
100
AcDbEntity
  8
0
100
AcDbBlockReference
  2
FLIEHGEWICHT_00045
 10
0.0
 20
0.0
 30
0.0
  0
INSERT
  5
293
100
AcDbEntity
  8
0
100
AcDbBlockReference
  2
ANSCHLUßFLANSCH_00054
 10
0.0
 20
0.0
 30
0.0
  0
ENDBLK
  5
294
100
AcDbEntity
  8
0
100
AcDbBlockEnd
  0
BLOCK
  5
295
100
AcDbEntity
  8
0
100
AcDbBlockBegin
  2
GEHÄUSE_00038
 70
    64
 10
0.0
 20
0.0
 30
0.0
  3
GEHÄUSE_00038
  0
INSERT
  5
296
100
AcDbEntity
  8
0
100
AcDbBlockReference
  2
_GEHÄUSE_00039
 10
2381.44610189
 20
-1427.70385938
 30
0.0
  0
ENDBLK
  5
297
100
AcDbEntity
  8
0
100
AcDbBlockEnd
  0
BLOCK
  5
298
100
AcDbEntity
  8
0
100
AcDbBlockBegin
  2
_GEHÄUSE_00039
 70
    64
 10
2381.44610189
 20
-1427.70385938
 30
0.0
  3
_GEHÄUSE_00039
  0
LINE
  5
299
100
AcDbEntity
  8
0
100
AcDbLine
 10
2381.44610189
 20
-1427.70385938
 30
0.0
 11
2381.44610189
 21
-1422.98981418
 31
0.0
  0
POLYLINE
  5
29A
100
AcDbEntity
  8
0
100
AcDb2dPolyline
 66
     1
  0
VERTEX
  5
29B
100
AcDbEntity
  8
0
100
AcDbVertex
100
AcDb2dVertex
 10
2376.76903015
 20
-1427.11460373
 30
0.0
  0
VERTEX
  5
29C
100
AcDbEntity
  8
0
100
AcDbVertex
100
AcDb2dVertex
 10
2381.44610189
 20
-1427.70385938
 30
0.0
  0
VERTEX
  5
29D
100
AcDbEntity
  8
0
100
AcDbVertex
100
AcDb2dVertex
 10
2412.55880026
 20
-1400.26503855
 30
0.0
  0
VERTEX
  5
29E
100
AcDbEntity
  8
0
100
AcDbVertex
100
AcDb2dVertex
 10
2412.55880026
 20
-1361.60986784
 30
0.0
  0
SEQEND
  5
29F
100
AcDbEntity
  8
0
  0
LINE
  5
2A0
100
AcDbEntity
  8
0
100
AcDbLine
 10
2380.73899511
 20
-1389.67229824
 30
0.0
 11
2412.55880026
 21
-1361.60986784
 31
0.0
  0
LINE
  5
2A1
100
AcDbEntity
  8
0
100
AcDbLine
 10
2380.73899511
 20
-1289.73453984
 30
0.0
 11
2380.73899511
 21
-1389.67229824
 31
0.0
  0
LINE
  5
2A2
100
AcDbEntity
  8
0
100
AcDbLine
 10
2412.55880026
 20
-1261.67210944
 30
0.0
 11
2380.73899511
 21
-1289.73453984
 31
0.0
  0
LINE
  5
2A3
100
AcDbEntity
  8
0
100
AcDbLine
 10
2412.55880026
 20
-1261.67210944
 30
0.0
 11
2412.55880026
 21
-709.89870771
 31
0.0
  0
LINE
  5
2A4
100
AcDbEntity
  8
0
100
AcDbLine
 10
2264.93910345
 20
-839.37434652
 30
0.0
 11
2411.85169348
 21
-709.80962063
 31
0.0
  0
LINE
  5
2A5
100
AcDbEntity
  8
0
100
AcDbLine
 10
2381.44610189
 20
-1422.98981418
 30
0.0
 11
2366.74011350
 21
-1435.95927686
 31
0.0
  0
LINE
  5
2A6
100
AcDbEntity
  8
0
100
AcDbLine
 10
1560.62463799
 20
-602.56509215
 30
0.0
 11
1499.38270655
 21
-656.57539895
 31
0.0
  0
LINE
  5
2A7
100
AcDbEntity
  8
0
100
AcDbLine
 10
2412.55880026
 20
-1361.60986784
 30
0.0
 11
2380.73899511
 21
-1357.60094921
 31
0.0
  0
ENDBLK
  5
2A8
100
AcDbEntity
  8
0
100
AcDbBlockEnd
  0
BLOCK
  5
2A9
100
AcDbEntity
  8
0
100
AcDbBlockBegin
  2
SCHUTZHAUBE_00040
 70
    64
 10
0.0
 20
0.0
 30
0.0
  3
SCHUTZHAUBE_00040
  0
INSERT
  5
2AA
100
AcDbEntity
  8
0
100
AcDbBlockReference
  2
SCHUTZHAUBE_00041
 10
0.0
 20
0.0
 30
0.0
  0
INSERT
  5
2AB
100
AcDbEntity
  8
0
100
AcDbBlockReference
  2
SCHUTZHAUBE_00043
 10
0.0
 20
0.0
 30
0.0
  0
ENDBLK
  5
2AC
100
AcDbEntity
  8
0
100
AcDbBlockEnd
  0
BLOCK
  5
2AD
100
AcDbEntity
  8
0
100
AcDbBlockBegin
  2
SCHUTZHAUBE_00041
 70
    64
 10
0.0
 20
0.0
 30
0.0
  3
SCHUTZHAUBE_00041
  0
INSERT
  5
2AE
100
AcDbEntity
  8
0
100
AcDbBlockReference
  2
_SCHUTZHAUBE_00042
 10
1542.90677618
 20
-600.33285139
 30
0.0
  0
ENDBLK
  5
2AF
100
AcDbEntity
  8
0
100
AcDbBlockEnd
  0
BLOCK
  5
2B0
100
AcDbEntity
  8
0
100
AcDbBlockBegin
  2
_SCHUTZHAUBE_00042
 70
    64
 10
1542.90677618
 20
-600.33285139
 30
0.0
  3
_SCHUTZHAUBE_00042
  0
LINE
  5
2B1
100
AcDbEntity
  8
0
100
AcDbLine
 10
1542.90677618
 20
-600.33285139
 30
0.0
 11
1542.90677618
 21
-617.41254839
 31
0.0
  0
LINE
  5
2B2
100
AcDbEntity
  8
0
100
AcDbLine
 10
1442.48292313
 20
-649.40670007
 30
0.0
 11
1503.72485457
 21
-595.39639327
 31
0.0
  0
LINE
  5
2B3
100
AcDbEntity
  8
0
100
AcDbLine
 10
1506.37060588
 20
-595.72972660
 30
0.0
 11
1445.12867444
 21
-649.74003340
 31
0.0
  0
LINE
  5
2B4
100
AcDbEntity
  8
0
100
AcDbLine
 10
2395.06924602
 20
-1277.09644646
 30
0.0
 11
2541.64598010
 21
-1295.56337914
 31
0.0
  0
LINE
  5
2B5
100
AcDbEntity
  8
0
100
AcDbLine
 10
2354.63092660
 20
-587.57777856
 30
0.0
 11
2468.75147690
 21
-716.97831952
 31
0.0
  0
LINE
  5
2B6
100
AcDbEntity
  8
0
100
AcDbLine
 10
1503.72485457
 20
-595.39639327
 30
0.0
 11
2468.75147690
 21
-716.97831952
 31
0.0
  0
POLYLINE
  5
2B7
100
AcDbEntity
  8
0
100
AcDb2dPolyline
 66
     1
  0
VERTEX
  5
2B8
100
AcDbEntity
  8
0
100
AcDbVertex
100
AcDb2dVertex
 10
1503.72485457
 20
-595.39639327
 30
0.0
  0
VERTEX
  5
2B9
100
AcDbEntity
  8
0
100
AcDbVertex
100
AcDb2dVertex
 10
1617.84540486
 20
-494.75152808
 30
0.0
  0
VERTEX
  5
2BA
100
AcDbEntity
  8
0
100
AcDbVertex
100
AcDb2dVertex
 10
2354.63092660
 20
-587.57777856
 30
0.0
  0
SEQEND
  5
2BB
100
AcDbEntity
  8
0
  0
LINE
  5
2BC
100
AcDbEntity
  8
0
100
AcDbLine
 10
2466.70735142
 20
-488.73566259
 30
0.0
 11
2354.63092660
 21
-587.57777856
 31
0.0
  0
LINE
  5
2BD
100
AcDbEntity
  8
0
100
AcDbLine
 10
2654.88612683
 20
-702.11033764
 30
0.0
 11
2466.70735142
 21
-488.73566259
 31
0.0
  0
LINE
  5
2BE
100
AcDbEntity
  8
0
100
AcDbLine
 10
2543.51680880
 20
-800.32884404
 30
0.0
 11
2654.88612683
 21
-702.11033764
 31
0.0
  0
LINE
  5
2BF
100
AcDbEntity
  8
0
100
AcDbLine
 10
2469.45858368
 20
-716.35470995
 30
0.0
 11
2543.51680880
 21
-800.32884404
 31
0.0
  0
LINE
  5
2C0
100
AcDbEntity
  8
0
100
AcDbLine
 10
2468.75147690
 20
-716.97831952
 30
0.0
 11
2469.45858368
 21
-716.35470995
 31
0.0
  0
LINE
  5
2C1
100
AcDbEntity
  8
0
100
AcDbLine
 10
2541.64598010
 20
-800.87419036
 30
0.0
 11
2467.51993915
 21
-716.82316035
 31
0.0
  0
LINE
  5
2C2
100
AcDbEntity
  8
0
100
AcDbLine
 10
2541.64598010
 20
-1407.10040410
 30
0.0
 11
2541.64598010
 21
-800.87419036
 31
0.0
  0
LINE
  5
2C3
100
AcDbEntity
  8
0
100
AcDbLine
 10
2543.51680880
 20
-1407.33610636
 30
0.0
 11
2541.64598010
 21
-1407.10040410
 31
0.0
  0
LINE
  5
2C4
100
AcDbEntity
  8
0
100
AcDbLine
 10
2543.51680880
 20
-800.32884404
 30
0.0
 11
2543.51680880
 21
-1407.33610636
 31
0.0
  0
LINE
  5
2C5
100
AcDbEntity
  8
0
100
AcDbLine
 10
2654.88612683
 20
-1309.11759996
 30
0.0
 11
2543.51680880
 21
-1407.33610636
 31
0.0
  0
LINE
  5
2C6
100
AcDbEntity
  8
0
100
AcDbLine
 10
2654.88612683
 20
-1309.11759996
 30
0.0
 11
2654.88612683
 21
-702.11033764
 31
0.0
  0
LINE
  5
2C7
100
AcDbEntity
  8
0
100
AcDbLine
 10
2466.70735142
 20
-488.73566259
 30
0.0
 11
1729.92182968
 21
-395.90941211
 31
0.0
  0
LINE
  5
2C8
100
AcDbEntity
  8
0
100
AcDbLine
 10
1617.84540486
 20
-494.75152808
 30
0.0
 11
1729.92182968
 21
-395.90941211
 31
0.0
  0
ENDBLK
  5
2C9
100
AcDbEntity
  8
0
100
AcDbBlockEnd
  0
BLOCK
  5
2CA
100
AcDbEntity
  8
0
100
AcDbBlockBegin
  2
SCHUTZHAUBE_00043
 70
    64
 10
0.0
 20
0.0
 30
0.0
  3
SCHUTZHAUBE_00043
  0
INSERT
  5
2CB
100
AcDbEntity
  8
0
100
AcDbBlockReference
  2
_SCHUTZHAUBE_00044
 10
1403.71399616
 20
-1025.75212843
 30
0.0
  0
ENDBLK
  5
2CC
100
AcDbEntity
  8
0
100
AcDbBlockEnd
  0
BLOCK
  5
2CD
100
AcDbEntity
  8
0
100
AcDbBlockBegin
  2
_SCHUTZHAUBE_00044
 70
    64
 10
1403.71399616
 20
-1025.75212843
 30
0.0
  3
_SCHUTZHAUBE_00044
  0
ELLIPSE
  5
2CE
100
AcDbEntity
  8
0
100
AcDbEllipse
 10
1493.00810291
 20
-1127.00212843
 30
0.0
 11
89.29410675
 21
-101.25000000
 31
0.0
 40
0.88191710
 41
3.14159265
 42
6.28318531
  0
ELLIPSE
  5
2CF
100
AcDbEntity
  8
0
100
AcDbEllipse
 10
1493.00810291
 20
-1127.00212843
 30
0.0
 11
89.29410675
 21
-101.25000000
 31
0.0
 40
0.88191710
 41
0.0
 42
3.14159265
  0
ELLIPSE
  5
2D0
100
AcDbEntity
  8
0
100
AcDbEllipse
 10
1493.71520969
 20
-1126.37851887
 30
0.0
 11
89.29410675
 21
-101.25000000
 31
0.0
 40
0.88191710
 41
3.14555209
 42
6.27922587
  0
LINE
  5
2D1
100
AcDbEntity
  8
0
100
AcDbLine
 10
2255.37079546
 20
-1661.45700388
 30
0.0
 11
2366.74011350
 21
-1563.23849748
 31
0.0
  0
LINE
  5
2D2
100
AcDbEntity
  8
0
100
AcDbLine
 10
2366.74011350
 20
-956.23123516
 30
0.0
 11
2366.74011350
 21
-1563.23849748
 31
0.0
  0
LINE
  5
2D3
100
AcDbEntity
  8
0
100
AcDbLine
 10
2366.74011350
 20
-956.23123516
 30
0.0
 11
2255.37079546
 21
-1054.44974156
 31
0.0
  0
LINE
  5
2D4
100
AcDbEntity
  8
0
100
AcDbLine
 10
2255.37079546
 20
-1661.45700388
 30
0.0
 11
2255.37079546
 21
-1054.44974156
 31
0.0
  0
LINE
  5
2D5
100
AcDbEntity
  8
0
100
AcDbLine
 10
1142.22772290
 20
-1521.21415894
 30
0.0
 11
2255.37079546
 21
-1661.45700388
 31
0.0
  0
LINE
  5
2D6
100
AcDbEntity
  8
0
100
AcDbLine
 10
1142.22772290
 20
-914.20689662
 30
0.0
 11
1142.22772290
 21
-1521.21415894
 31
0.0
  0
LINE
  5
2D7
100
AcDbEntity
  8
0
100
AcDbLine
 10
1330.40649831
 20
-748.24881603
 30
0.0
 11
1142.22772290
 21
-914.20689662
 31
0.0
  0
LINE
  5
2D8
100
AcDbEntity
  8
0
100
AcDbLine
 10
1442.48292313
 20
-649.40670007
 30
0.0
 11
1330.40649831
 21
-748.24881603
 31
0.0
  0
POLYLINE
  5
2D9
100
AcDbEntity
  8
0
100
AcDb2dPolyline
 66
     1
  0
VERTEX
  5
2DA
100
AcDbEntity
  8
0
100
AcDbVertex
100
AcDb2dVertex
 10
1442.48292313
 20
-649.40670007
 30
0.0
  0
VERTEX
  5
2DB
100
AcDbEntity
  8
0
100
AcDbVertex
100
AcDb2dVertex
 10
2179.26844487
 20
-742.23295055
 30
0.0
  0
VERTEX
  5
2DC
100
AcDbEntity
  8
0
100
AcDbVertex
100
AcDb2dVertex
 10
2293.38899516
 20
-871.63349150
 30
0.0
  0
VERTEX
  5
2DD
100
AcDbEntity
  8
0
100
AcDbVertex
100
AcDb2dVertex
 10
2292.68188838
 20
-872.25710107
 30
0.0
  0
VERTEX
  5
2DE
100
AcDbEntity
  8
0
100
AcDbVertex
100
AcDb2dVertex
 10
2366.74011350
 20
-956.23123516
 30
0.0
  0
SEQEND
  5
2DF
100
AcDbEntity
  8
0
  0
LINE
  5
2E0
100
AcDbEntity
  8
0
100
AcDbLine
 10
2067.19202005
 20
-841.07506651
 30
0.0
 11
2179.26844487
 21
-742.23295055
 31
0.0
  0
POLYLINE
  5
2E1
100
AcDbEntity
  8
0
100
AcDb2dPolyline
 66
     1
  0
VERTEX
  5
2E2
100
AcDbEntity
  8
0
100
AcDbVertex
100
AcDb2dVertex
 10
2255.37079546
 20
-1054.44974156
 30
0.0
  0
VERTEX
  5
2E3
100
AcDbEntity
  8
0
100
AcDbVertex
100
AcDb2dVertex
 10
2067.19202005
 20
-841.07506651
 30
0.0
  0
VERTEX
  5
2E4
100
AcDbEntity
  8
0
100
AcDbVertex
100
AcDb2dVertex
 10
1330.40649831
 20
-748.24881603
 30
0.0
  0
SEQEND
  5
2E5
100
AcDbEntity
  8
0
  0
ENDBLK
  5
2E6
100
AcDbEntity
  8
0
100
AcDbBlockEnd
  0
BLOCK
  5
2E7
100
AcDbEntity
  8
0
100
AcDbBlockBegin
  2
FLIEHGEWICHT_00045
 70
    64
 10
0.0
 20
0.0
 30
0.0
  3
FLIEHGEWICHT_00045
  0
INSERT
  5
2E8
100
AcDbEntity
  8
0
100
AcDbBlockReference
  2
FLIEHGEWICHT_00046
 10
0.0
 20
0.0
 30
0.0
  0
INSERT
  5
2E9
100
AcDbEntity
  8
0
100
AcDbBlockReference
  2
FLIEHGEWICHT_00049
 10
0.0
 20
0.0
 30
0.0
  0
ENDBLK
  5
2EA
100
AcDbEntity
  8
0
100
AcDbBlockEnd
  0
BLOCK
  5
2EB
100
AcDbEntity
  8
0
100
AcDbBlockBegin
  2
FLIEHGEWICHT_00046
 70
    64
 10
0.0
 20
0.0
 30
0.0
  3
FLIEHGEWICHT_00046
  0
INSERT
  5
2EC
100
AcDbEntity
  8
0
100
AcDbBlockReference
  2
FLIEHGEWICHT_00047
 10
0.0
 20
0.0
 30
0.0
  0
ENDBLK
  5
2ED
100
AcDbEntity
  8
0
100
AcDbBlockEnd
  0
BLOCK
  5
2EE
100
AcDbEntity
  8
0
100
AcDbBlockBegin
  2
FLIEHGEWICHT_00047
 70
    64
 10
0.0
 20
0.0
 30
0.0
  3
FLIEHGEWICHT_00047
  0
INSERT
  5
2EF
100
AcDbEntity
  8
0
100
AcDbBlockReference
  2
_FLIEHGEWICHT_00048
 10
1614.76897070
 20
-1176.09107228
 30
0.0
  0
ENDBLK
  5
2F0
100
AcDbEntity
  8
0
100
AcDbBlockEnd
  0
BLOCK
  5
2F1
100
AcDbEntity
  8
0
100
AcDbBlockBegin
  2
_FLIEHGEWICHT_00048
 70
    64
 10
1614.76897070
 20
-1176.09107228
 30
0.0
  3
_FLIEHGEWICHT_00048
  0
LINE
  5
2F2
100
AcDbEntity
  8
0
100
AcDbLine
 10
1614.76897070
 20
-1176.09107228
 30
0.0
 11
1609.00289946
 21
-1181.17626913
 31
0.0
  0
ELLIPSE
  5
2F3
100
AcDbEntity
  8
0
100
AcDbEllipse
 10
1431.25065989
 20
-1054.18785310
 30
0.0
 11
145.51632211
 21
-165.00000000
 31
0.0
 40
0.88191710
 41
0.25879307
 42
0.33993490
  0
LINE
  5
2F4
100
AcDbEntity
  8
0
100
AcDbLine
 10
1576.63654592
 20
-1232.81994782
 30
0.0
 11
1597.55721460
 21
-1199.39271061
 31
0.0
  0
ENDBLK
  5
2F5
100
AcDbEntity
  8
0
100
AcDbBlockEnd
  0
BLOCK
  5
2F6
100
AcDbEntity
  8
0
100
AcDbBlockBegin
  2
FLIEHGEWICHT_00049
 70
    64
 10
0.0
 20
0.0
 30
0.0
  3
FLIEHGEWICHT_00049
  0
INSERT
  5
2F7
100
AcDbEntity
  8
0
100
AcDbBlockReference
  2
FLIEHGEWICHT_00050
 10
0.0
 20
0.0
 30
0.0
  0
INSERT
  5
2F8
100
AcDbEntity
  8
0
100
AcDbBlockReference
  2
FLIEHGEWICHT_00052
 10
0.0
 20
0.0
 30
0.0
  0
ENDBLK
  5
2F9
100
AcDbEntity
  8
0
100
AcDbBlockEnd
  0
BLOCK
  5
2FA
100
AcDbEntity
  8
0
100
AcDbBlockBegin
  2
FLIEHGEWICHT_00050
 70
    64
 10
0.0
 20
0.0
 30
0.0
  3
FLIEHGEWICHT_00050
  0
INSERT
  5
2FB
100
AcDbEntity
  8
0
100
AcDbBlockReference
  2
_FLIEHGEWICHT_00051
 10
1558.77921277
 20
-602.33259043
 30
0.0
  0
ENDBLK
  5
2FC
100
AcDbEntity
  8
0
100
AcDbBlockEnd
  0
BLOCK
  5
2FD
100
AcDbEntity
  8
0
100
AcDbBlockBegin
  2
_FLIEHGEWICHT_00051
 70
    64
 10
1558.77921277
 20
-602.33259043
 30
0.0
  3
_FLIEHGEWICHT_00051
  0
ELLIPSE
  5
2FE
100
AcDbEntity
  8
0
100
AcDbEllipse
 10
1789.63939762
 20
-865.39791614
 30
0.0
 11
231.50323972
 21
-262.50000000
 31
0.0
 40
0.88191710
 41
3.13881876
 42
3.14159265
  0
ELLIPSE
  5
2FF
100
AcDbEntity
  8
0
100
AcDbEllipse
 10
1789.63939762
 20
-865.39791614
 30
0.0
 11
231.50323972
 21
-262.50000000
 31
0.0
 40
0.88191710
 41
3.14159265
 42
3.23094865
  0
LINE
  5
300
100
AcDbEntity
  8
0
100
AcDbLine
 10
1558.13615790
 20
-602.89791614
 30
0.0
 11
1558.77743147
 21
-602.33236601
 31
0.0
  0
ENDBLK
  5
301
100
AcDbEntity
  8
0
100
AcDbBlockEnd
  0
BLOCK
  5
302
100
AcDbEntity
  8
0
100
AcDbBlockBegin
  2
FLIEHGEWICHT_00052
 70
    64
 10
0.0
 20
0.0
 30
0.0
  3
FLIEHGEWICHT_00052
  0
INSERT
  5
303
100
AcDbEntity
  8
0
100
AcDbBlockReference
  2
_FLIEHGEWICHT_00053
 10
2412.55880026
 20
-1182.12162079
 30
0.0
  0
ENDBLK
  5
304
100
AcDbEntity
  8
0
100
AcDbBlockEnd
  0
BLOCK
  5
305
100
AcDbEntity
  8
0
100
AcDbBlockBegin
  2
_FLIEHGEWICHT_00053
 70
    64
 10
2412.55880026
 20
-1182.12162079
 30
0.0
  3
_FLIEHGEWICHT_00053
  0
ELLIPSE
  5
306
100
AcDbEntity
  8
0
100
AcDbEllipse
 10
2247.71398102
 20
-876.25008456
 30
0.0
 11
231.50323972
 21
-262.50000000
 31
0.0
 40
0.88191710
 41
6.02543715
 42
0.00000000
  0
ELLIPSE
  5
307
100
AcDbEntity
  8
0
100
AcDbEllipse
 10
2247.71398102
 20
-876.25008456
 30
0.0
 11
231.50323972
 21
-262.50000000
 31
0.0
 40
0.88191710
 41
0.00000000
 42
0.32932766
  0
ELLIPSE
  5
308
100
AcDbEntity
  8
0
100
AcDbEllipse
 10
2286.07452390
 20
-842.41926569
 30
0.0
 11
231.50323972
 21
-262.50000000
 31
0.0
 40
0.88191710
 41
6.28318531
 42
0.11026076
  0
LINE
  5
309
100
AcDbEntity
  8
0
100
AcDbLine
 10
2479.21722074
 20
-1138.75008456
 30
0.0
 11
2517.57776362
 21
-1104.91926569
 31
0.0
  0
ENDBLK
  5
30A
100
AcDbEntity
  8
0
100
AcDbBlockEnd
  0
BLOCK
  5
30B
100
AcDbEntity
  8
0
100
AcDbBlockBegin
  2
ANSCHLUßFLANSCH_00054
 70
    64
 10
0.0
 20
0.0
 30
0.0
  3
ANSCHLUßFLANSCH_00054
  0
INSERT
  5
30C
100
AcDbEntity
  8
0
100
AcDbBlockReference
  2
_ANSCHLUßFLANSCH_00055
 10
1392.69089454
 20
-1068.86976489
 30
0.0
  0
ENDBLK
  5
30D
100
AcDbEntity
  8
0
100
AcDbBlockEnd
  0
BLOCK
  5
30E
100
AcDbEntity
  8
0
100
AcDbBlockBegin
  2
_ANSCHLUßFLANSCH_00055
 70
    64
 10
1392.69089454
 20
-1068.86976489
 30
0.0
  3
_ANSCHLUßFLANSCH_00055
  0
ELLIPSE
  5
30F
100
AcDbEntity
  8
0
100
AcDbEllipse
 10
1398.80919445
 20
-1075.80726489
 30
0.0
 11
6.11829991
 21
-6.93750000
 31
0.0
 40
0.88191710
 41
3.14159265
 42
6.28318531
  0
ELLIPSE
  5
310
100
AcDbEntity
  8
0
100
AcDbEllipse
 10
1398.80919445
 20
-1075.80726489
 30
0.0
 11
6.11829991
 21
-6.93750000
 31
0.0
 40
0.88191710
 41
0.00000000
 42
3.14159265
  0
ELLIPSE
  5
311
100
AcDbEntity
  8
0
100
AcDbEllipse
 10
1408.70868939
 20
-1067.07673099
 30
0.0
 11
6.11829991
 21
-6.93750000
 31
0.0
 40
0.88191710
 41
4.08405345
 42
5.34072451
  0
ELLIPSE
  5
312
100
AcDbEntity
  8
0
100
AcDbEllipse
 10
1398.80919445
 20
-1154.46109811
 30
0.0
 11
6.11829991
 21
-6.93750000
 31
0.0
 40
0.88191710
 41
3.14159265
 42
6.28318531
  0
ELLIPSE
  5
313
100
AcDbEntity
  8
0
100
AcDbEllipse
 10
1398.80919445
 20
-1154.46109811
 30
0.0
 11
6.11829991
 21
-6.93750000
 31
0.0
 40
0.88191710
 41
6.28318531
 42
3.14159265
  0
ELLIPSE
  5
314
100
AcDbEntity
  8
0
100
AcDbEllipse
 10
1408.70868939
 20
-1145.73056421
 30
0.0
 11
6.11829991
 21
-6.93750000
 31
0.0
 40
0.88191710
 41
4.08405345
 42
5.34072451
  0
ELLIPSE
  5
315
100
AcDbEntity
  8
0
100
AcDbEllipse
 10
1453.98963746
 20
-1217.02983930
 30
0.0
 11
6.11829991
 21
-6.93750000
 31
0.0
 40
0.88191710
 41
3.14159265
 42
0.00000000
  0
ELLIPSE
  5
316
100
AcDbEntity
  8
0
100
AcDbEllipse
 10
1453.98963746
 20
-1217.02983930
 30
0.0
 11
6.11829991
 21
-6.93750000
 31
0.0
 40
0.88191710
 41
6.28318531
 42
3.14159265
  0
ELLIPSE
  5
317
100
AcDbEntity
  8
0
100
AcDbEllipse
 10
1463.88913240
 20
-1208.29930540
 30
0.0
 11
6.11829991
 21
-6.93750000
 31
0.0
 40
0.88191710
 41
4.08405345
 42
5.34072451
  0
ELLIPSE
  5
318
100
AcDbEntity
  8
0
100
AcDbEllipse
 10
1532.02656835
 20
-1226.86156846
 30
0.0
 11
6.11829991
 21
-6.93750000
 31
0.0
 40
0.88191710
 41
3.14159265
 42
6.28318531
  0
ELLIPSE
  5
319
100
AcDbEntity
  8
0
100
AcDbEllipse
 10
1532.02656835
 20
-1226.86156846
 30
0.0
 11
6.11829991
 21
-6.93750000
 31
0.0
 40
0.88191710
 41
0.0
 42
3.14159265
  0
ELLIPSE
  5
31A
100
AcDbEntity
  8
0
100
AcDbEllipse
 10
1541.92606329
 20
-1218.13103455
 30
0.0
 11
6.11829991
 21
-6.93750000
 31
0.0
 40
0.88191710
 41
4.08405345
 42
5.34072451
  0
ELLIPSE
  5
31B
100
AcDbEntity
  8
0
100
AcDbEllipse
 10
1587.20701136
 20
-1178.19699197
 30
0.0
 11
6.11829991
 21
-6.93750000
 31
0.0
 40
0.88191710
 41
3.14159265
 42
0.00000000
  0
ELLIPSE
  5
31C
100
AcDbEntity
  8
0
100
AcDbEllipse
 10
1587.20701136
 20
-1178.19699197
 30
0.0
 11
6.11829991
 21
-6.93750000
 31
0.0
 40
0.88191710
 41
6.28318531
 42
3.14159265
  0
ELLIPSE
  5
31D
100
AcDbEntity
  8
0
100
AcDbEllipse
 10
1597.10650630
 20
-1169.46645807
 30
0.0
 11
6.11829991
 21
-6.93750000
 31
0.0
 40
0.88191710
 41
4.08405345
 42
5.34072451
  0
ELLIPSE
  5
31E
100
AcDbEntity
  8
0
100
AcDbEllipse
 10
1587.20701136
 20
-1099.54315875
 30
0.0
 11
6.11829991
 21
-6.93750000
 31
0.0
 40
0.88191710
 41
3.14159265
 42
6.28318531
  0
ELLIPSE
  5
31F
100
AcDbEntity
  8
0
100
AcDbEllipse
 10
1587.20701136
 20
-1099.54315875
 30
0.0
 11
6.11829991
 21
-6.93750000
 31
0.0
 40
0.88191710
 41
0.00000000
 42
3.14159265
  0
ELLIPSE
  5
320
100
AcDbEntity
  8
0
100
AcDbEllipse
 10
1597.10650630
 20
-1090.81262485
 30
0.0
 11
6.11829991
 21
-6.93750000
 31
0.0
 40
0.88191710
 41
4.08405345
 42
5.34072451
  0
ELLIPSE
  5
321
100
AcDbEntity
  8
0
100
AcDbEllipse
 10
1532.02656835
 20
-1036.97441756
 30
0.0
 11
6.11829991
 21
-6.93750000
 31
0.0
 40
0.88191710
 41
3.14159265
 42
0.00000000
  0
ELLIPSE
  5
322
100
AcDbEntity
  8
0
100
AcDbEllipse
 10
1532.02656835
 20
-1036.97441756
 30
0.0
 11
6.11829991
 21
-6.93750000
 31
0.0
 40
0.88191710
 41
0.00000000
 42
3.14159265
  0
ELLIPSE
  5
323
100
AcDbEntity
  8
0
100
AcDbEllipse
 10
1541.92606329
 20
-1028.24388366
 30
0.0
 11
6.11829991
 21
-6.93750000
 31
0.0
 40
0.88191710
 41
4.08405345
 42
5.34072451
  0
ELLIPSE
  5
324
100
AcDbEntity
  8
0
100
AcDbEllipse
 10
1453.98963746
 20
-1027.14268841
 30
0.0
 11
6.11829991
 21
-6.93750000
 31
0.0
 40
0.88191710
 41
3.14159265
 42
6.28318531
  0
ELLIPSE
  5
325
100
AcDbEntity
  8
0
100
AcDbEllipse
 10
1453.98963746
 20
-1027.14268841
 30
0.0
 11
6.11829991
 21
-6.93750000
 31
0.0
 40
0.88191710
 41
0.00000000
 42
3.14159265
  0
ELLIPSE
  5
326
100
AcDbEntity
  8
0
100
AcDbEllipse
 10
1463.88913240
 20
-1018.41215451
 30
0.0
 11
6.11829991
 21
-6.93750000
 31
0.0
 40
0.88191710
 41
4.08405345
 42
5.34072451
  0
ELLIPSE
  5
327
100
AcDbEntity
  8
0
100
AcDbEllipse
 10
1493.00810291
 20
-1127.00212843
 30
0.0
 11
82.67972847
 21
-93.75000000
 31
0.0
 40
0.88191710
 41
0.00000000
 42
3.14159265
  0
LINE
  5
328
100
AcDbEntity
  8
0
100
AcDbLine
 10
1585.58732631
 20
-1212.02159453
 30
0.0
 11
1575.68783138
 21
-1220.75212843
 31
0.0
  0
ELLIPSE
  5
329
100
AcDbEntity
  8
0
100
AcDbEllipse
 10
1502.90759784
 20
-1118.27159453
 30
0.0
 11
82.67972847
 21
-93.75000000
 31
0.0
 40
0.88191710
 41
6.28318531
 42
0.68802497
  0
ELLIPSE
  5
32A
100
AcDbEntity
  8
0
100
AcDbEllipse
 10
1502.90759784
 20
-1118.27159453
 30
0.0
 11
82.67972847
 21
-93.75000000
 31
0.0
 40
0.88191710
 41
2.45356768
 42
3.14159265
  0
LINE
  5
32B
100
AcDbEntity
  8
0
100
AcDbLine
 10
1420.22786937
 20
-1024.52159453
 30
0.0
 11
1410.32837444
 21
-1033.25212843
 31
0.0
  0
ELLIPSE
  5
32C
100
AcDbEntity
  8
0
100
AcDbEllipse
 10
1493.00810291
 20
-1127.00212843
 30
0.0
 11
82.67972847
 21
-93.75000000
 31
0.0
 40
0.88191710
 41
3.14159265
 42
6.28318531
  0
ENDBLK
  5
32D
100
AcDbEntity
  8
0
100
AcDbBlockEnd
  0
BLOCK
  5
32E
100
AcDbEntity
  8
0
100
AcDbBlockBegin
  2
ANS3D06_00056
 70
    64
 10
0.0
 20
0.0
 30
0.0
  3
ANS3D06_00056
  0
INSERT
  5
32F
100
AcDbEntity
  8
0
100
AcDbBlockReference
  2
FIG3D06_00057
 10
0.0
 20
0.0
 30
0.0
  0
ENDBLK
  5
330
100
AcDbEntity
  8
0
100
AcDbBlockEnd
  0
BLOCK
  5
331
100
AcDbEntity
  8
0
100
AcDbBlockBegin
  2
FIG3D06_00057
 70
    64
 10
0.0
 20
0.0
 30
0.0
  3
FIG3D06_00057
  0
INSERT
  5
332
100
AcDbEntity
  8
0
100
AcDbBlockReference
  2
JR100_00058
 10
0.0
 20
0.0
 30
0.0
  0
ENDBLK
  5
333
100
AcDbEntity
  8
0
100
AcDbBlockEnd
  0
BLOCK
  5
334
100
AcDbEntity
  8
0
100
AcDbBlockBegin
  2
JR100_00058
 70
    64
 10
0.0
 20
0.0
 30
0.0
  3
JR100_00058
  0
INSERT
  5
335
100
AcDbEntity
  8
0
100
AcDbBlockReference
  2
GEHÄUSE_00059
 10
0.0
 20
0.0
 30
0.0
  0
INSERT
  5
336
100
AcDbEntity
  8
0
100
AcDbBlockReference
  2
WELLE_00061
 10
0.0
 20
0.0
 30
0.0
  0
INSERT
  5
337
100
AcDbEntity
  8
0
100
AcDbBlockReference
  2
SCHUTZHAUBE_00070
 10
0.0
 20
0.0
 30
0.0
  0
INSERT
  5
338
100
AcDbEntity
  8
0
100
AcDbBlockReference
  2
FLIEHGEWICHT_00075
 10
0.0
 20
0.0
 30
0.0
  0
INSERT
  5
339
100
AcDbEntity
  8
0
100
AcDbBlockReference
  2
ANSCHLUßFLANSCH_00086
 10
0.0
 20
0.0
 30
0.0
  0
ENDBLK
  5
33A
100
AcDbEntity
  8
0
100
AcDbBlockEnd
  0
BLOCK
  5
33B
100
AcDbEntity
  8
0
100
AcDbBlockBegin
  2
GEHÄUSE_00059
 70
    64
 10
0.0
 20
0.0
 30
0.0
  3
GEHÄUSE_00059
  0
INSERT
  5
33C
100
AcDbEntity
  8
0
100
AcDbBlockReference
  2
_GEHÄUSE_00060
 10
498.24588175
 20
1257.12330531
 30
0.0
  0
ENDBLK
  5
33D
100
AcDbEntity
  8
0
100
AcDbBlockEnd
  0
BLOCK
  5
33E
100
AcDbEntity
  8
0
100
AcDbBlockBegin
  2
_GEHÄUSE_00060
 70
    64
 10
498.24588175
 20
1257.12330531
 30
0.0
  3
_GEHÄUSE_00060
  0
CIRCLE
  5
33F
100
AcDbEntity
  8
0
100
AcDbCircle
 10
498.24588175
 20
1237.62330531
 30
0.0
 40
19.50000000
  0
CIRCLE
  5
340
100
AcDbEntity
  8
0
100
AcDbCircle
 10
-101.75411825
 20
1237.62330531
 30
0.0
 40
19.50000000
  0
CIRCLE
  5
341
100
AcDbEntity
  8
0
100
AcDbCircle
 10
58.24588175
 20
1237.62330531
 30
0.0
 40
19.50000000
  0
CIRCLE
  5
342
100
AcDbEntity
  8
0
100
AcDbCircle
 10
338.24588175
 20
1237.62330531
 30
0.0
 40
19.50000000
  0
POLYLINE
  5
343
100
AcDbEntity
  8
0
100
AcDb2dPolyline
 66
     1
  0
VERTEX
  5
344
100
AcDbEntity
  8
0
100
AcDbVertex
100
AcDb2dVertex
 10
-256.75411825
 20
1280.62330531
 30
0.0
  0
VERTEX
  5
345
100
AcDbEntity
  8
0
100
AcDbVertex
100
AcDb2dVertex
 10
653.24588175
 20
1280.62330531
 30
0.0
  0
VERTEX
  5
346
100
AcDbEntity
  8
0
100
AcDbVertex
100
AcDb2dVertex
 10
653.24588175
 20
1192.62330531
 30
0.0
  0
VERTEX
  5
347
100
AcDbEntity
  8
0
100
AcDbVertex
100
AcDb2dVertex
 10
-256.75411825
 20
1192.62330531
 30
0.0
  0
VERTEX
  5
348
100
AcDbEntity
  8
0
100
AcDbVertex
100
AcDb2dVertex
 10
-256.75411825
 20
1280.62330531
 30
0.0
  0
SEQEND
  5
349
100
AcDbEntity
  8
0
  0
CIRCLE
  5
34A
100
AcDbEntity
  8
0
100
AcDbCircle
 10
498.24588175
 20
1647.62330531
 30
0.0
 40
19.50000000
  0
CIRCLE
  5
34B
100
AcDbEntity
  8
0
100
AcDbCircle
 10
338.24588175
 20
1647.62330531
 30
0.0
 40
19.50000000
  0
CIRCLE
  5
34C
100
AcDbEntity
  8
0
100
AcDbCircle
 10
-101.75411825
 20
1647.62330531
 30
0.0
 40
19.50000000
  0
CIRCLE
  5
34D
100
AcDbEntity
  8
0
100
AcDbCircle
 10
58.24588175
 20
1647.62330531
 30
0.0
 40
19.50000000
  0
POLYLINE
  5
34E
100
AcDbEntity
  8
0
100
AcDb2dPolyline
 66
     1
  0
VERTEX
  5
34F
100
AcDbEntity
  8
0
100
AcDbVertex
100
AcDb2dVertex
 10
653.24588175
 20
1692.62330531
 30
0.0
  0
VERTEX
  5
350
100
AcDbEntity
  8
0
100
AcDbVertex
100
AcDb2dVertex
 10
653.24588175
 20
1604.62330531
 30
0.0
  0
VERTEX
  5
351
100
AcDbEntity
  8
0
100
AcDbVertex
100
AcDb2dVertex
 10
-256.75411825
 20
1604.62330531
 30
0.0
  0
VERTEX
  5
352
100
AcDbEntity
  8
0
100
AcDbVertex
100
AcDb2dVertex
 10
-256.75411825
 20
1692.62330531
 30
0.0
  0
VERTEX
  5
353
100
AcDbEntity
  8
0
100
AcDbVertex
100
AcDb2dVertex
 10
653.24588175
 20
1692.62330531
 30
0.0
  0
SEQEND
  5
354
100
AcDbEntity
  8
0
  0
LINE
  5
355
100
AcDbEntity
  8
0
100
AcDbLine
 10
653.24588175
 20
1280.62330531
 30
0.0
 11
653.24588175
 21
1604.62330531
 31
0.0
  0
LINE
  5
356
100
AcDbEntity
  8
0
100
AcDbLine
 10
-256.75411825
 20
1604.62330531
 30
0.0
 11
-256.75411825
 21
1280.62330531
 31
0.0
  0
ENDBLK
  5
357
100
AcDbEntity
  8
0
100
AcDbBlockEnd
  0
BLOCK
  5
358
100
AcDbEntity
  8
0
100
AcDbBlockBegin
  2
WELLE_00061
 70
    64
 10
0.0
 20
0.0
 30
0.0
  3
WELLE_00061
  0
INSERT
  5
359
100
AcDbEntity
  8
0
100
AcDbBlockReference
  2
WELLE_00062
 10
0.0
 20
0.0
 30
0.0
  0
INSERT
  5
35A
100
AcDbEntity
  8
0
100
AcDbBlockReference
  2
WELLE_00064
 10
0.0
 20
0.0
 30
0.0
  0
INSERT
  5
35B
100
AcDbEntity
  8
0
100
AcDbBlockReference
  2
WELLE_00066
 10
0.0
 20
0.0
 30
0.0
  0
INSERT
  5
35C
100
AcDbEntity
  8
0
100
AcDbBlockReference
  2
WELLE_00068
 10
0.0
 20
0.0
 30
0.0
  0
ENDBLK
  5
35D
100
AcDbEntity
  8
0
100
AcDbBlockEnd
  0
BLOCK
  5
35E
100
AcDbEntity
  8
0
100
AcDbBlockBegin
  2
WELLE_00062
 70
    64
 10
0.0
 20
0.0
 30
0.0
  3
WELLE_00062
  0
INSERT
  5
35F
100
AcDbEntity
  8
0
100
AcDbBlockReference
  2
_WELLE_00063
 10
368.24588175
 20
1192.62330531
 30
0.0
  0
ENDBLK
  5
360
100
AcDbEntity
  8
0
100
AcDbBlockEnd
  0
BLOCK
  5
361
100
AcDbEntity
  8
0
100
AcDbBlockBegin
  2
_WELLE_00063
 70
    64
 10
368.24588175
 20
1192.62330531
 30
0.0
  3
_WELLE_00063
  0
LINE
  5
362
100
AcDbEntity
  8
0
100
AcDbLine
 10
368.24588175
 20
1192.62330531
 30
0.0
 11
468.24588175
 21
1192.62330531
 31
0.0
  0
LINE
  5
363
100
AcDbEntity
  8
0
100
AcDbLine
 10
468.24588175
 20
1037.12330531
 30
0.0
 11
468.24588175
 21
1192.62330531
 31
0.0
  0
LINE
  5
364
100
AcDbEntity
  8
0
100
AcDbLine
 10
468.24588175
 20
905.62330531
 30
0.0
 11
468.24588175
 21
928.62330531
 31
0.0
  0
LINE
  5
365
100
AcDbEntity
  8
0
100
AcDbLine
 10
468.24588175
 20
905.62330531
 30
0.0
 11
368.24588175
 21
905.62330531
 31
0.0
  0
LINE
  5
366
100
AcDbEntity
  8
0
100
AcDbLine
 10
368.24588175
 20
1037.12330531
 30
0.0
 11
368.24588175
 21
1192.62330531
 31
0.0
  0
LINE
  5
367
100
AcDbEntity
  8
0
100
AcDbLine
 10
368.24588175
 20
905.62330531
 30
0.0
 11
368.24588175
 21
928.62330531
 31
0.0
  0
ENDBLK
  5
368
100
AcDbEntity
  8
0
100
AcDbBlockEnd
  0
BLOCK
  5
369
100
AcDbEntity
  8
0
100
AcDbBlockBegin
  2
WELLE_00064
 70
    64
 10
0.0
 20
0.0
 30
0.0
  3
WELLE_00064
  0
INSERT
  5
36A
100
AcDbEntity
  8
0
100
AcDbBlockReference
  2
_WELLE_00065
 10
-71.75411825
 20
1192.62330531
 30
0.0
  0
ENDBLK
  5
36B
100
AcDbEntity
  8
0
100
AcDbBlockEnd
  0
BLOCK
  5
36C
100
AcDbEntity
  8
0
100
AcDbBlockBegin
  2
_WELLE_00065
 70
    64
 10
-71.75411825
 20
1192.62330531
 30
0.0
  3
_WELLE_00065
  0
LINE
  5
36D
100
AcDbEntity
  8
0
100
AcDbLine
 10
-71.75411825
 20
1192.62330531
 30
0.0
 11
28.24588175
 21
1192.62330531
 31
0.0
  0
LINE
  5
36E
100
AcDbEntity
  8
0
100
AcDbLine
 10
28.24588175
 20
1168.62330531
 30
0.0
 11
28.24588175
 21
1192.62330531
 31
0.0
  0
LINE
  5
36F
100
AcDbEntity
  8
0
100
AcDbLine
 10
28.24588175
 20
905.62330531
 30
0.0
 11
28.24588175
 21
1060.12330531
 31
0.0
  0
LINE
  5
370
100
AcDbEntity
  8
0
100
AcDbLine
 10
28.24588175
 20
905.62330531
 30
0.0
 11
-71.75411825
 21
905.62330531
 31
0.0
  0
LINE
  5
371
100
AcDbEntity
  8
0
100
AcDbLine
 10
-71.75411825
 20
1168.62330531
 30
0.0
 11
-71.75411825
 21
1192.62330531
 31
0.0
  0
LINE
  5
372
100
AcDbEntity
  8
0
100
AcDbLine
 10
-71.75411825
 20
905.62330531
 30
0.0
 11
-71.75411825
 21
1060.12330531
 31
0.0
  0
ENDBLK
  5
373
100
AcDbEntity
  8
0
100
AcDbBlockEnd
  0
BLOCK
  5
374
100
AcDbEntity
  8
0
100
AcDbBlockBegin
  2
WELLE_00066
 70
    64
 10
0.0
 20
0.0
 30
0.0
  3
WELLE_00066
  0
INSERT
  5
375
100
AcDbEntity
  8
0
100
AcDbBlockReference
  2
_WELLE_00067
 10
468.24588175
 20
1979.62330531
 30
0.0
  0
ENDBLK
  5
376
100
AcDbEntity
  8
0
100
AcDbBlockEnd
  0
BLOCK
  5
377
100
AcDbEntity
  8
0
100
AcDbBlockBegin
  2
_WELLE_00067
 70
    64
 10
468.24588175
 20
1979.62330531
 30
0.0
  3
_WELLE_00067
  0
LINE
  5
378
100
AcDbEntity
  8
0
100
AcDbLine
 10
468.24588175
 20
1979.62330531
 30
0.0
 11
368.24588175
 21
1979.62330531
 31
0.0
  0
LINE
  5
379
100
AcDbEntity
  8
0
100
AcDbLine
 10
368.24588175
 20
1956.62330531
 30
0.0
 11
368.24588175
 21
1979.62330531
 31
0.0
  0
LINE
  5
37A
100
AcDbEntity
  8
0
100
AcDbLine
 10
368.24588175
 20
1692.62330531
 30
0.0
 11
368.24588175
 21
1848.12330531
 31
0.0
  0
LINE
  5
37B
100
AcDbEntity
  8
0
100
AcDbLine
 10
468.24588175
 20
1692.62330531
 30
0.0
 11
368.24588175
 21
1692.62330531
 31
0.0
  0
LINE
  5
37C
100
AcDbEntity
  8
0
100
AcDbLine
 10
468.24588175
 20
1956.62330531
 30
0.0
 11
468.24588175
 21
1979.62330531
 31
0.0
  0
LINE
  5
37D
100
AcDbEntity
  8
0
100
AcDbLine
 10
468.24588175
 20
1692.62330531
 30
0.0
 11
468.24588175
 21
1848.12330531
 31
0.0
  0
ENDBLK
  5
37E
100
AcDbEntity
  8
0
100
AcDbBlockEnd
  0
BLOCK
  5
37F
100
AcDbEntity
  8
0
100
AcDbBlockBegin
  2
WELLE_00068
 70
    64
 10
0.0
 20
0.0
 30
0.0
  3
WELLE_00068
  0
INSERT
  5
380
100
AcDbEntity
  8
0
100
AcDbBlockReference
  2
_WELLE_00069
 10
28.24588175
 20
1979.62330531
 30
0.0
  0
ENDBLK
  5
381
100
AcDbEntity
  8
0
100
AcDbBlockEnd
  0
BLOCK
  5
382
100
AcDbEntity
  8
0
100
AcDbBlockBegin
  2
_WELLE_00069
 70
    64
 10
28.24588175
 20
1979.62330531
 30
0.0
  3
_WELLE_00069
  0
LINE
  5
383
100
AcDbEntity
  8
0
100
AcDbLine
 10
28.24588175
 20
1979.62330531
 30
0.0
 11
-71.75411825
 21
1979.62330531
 31
0.0
  0
LINE
  5
384
100
AcDbEntity
  8
0
100
AcDbLine
 10
-71.75411825
 20
1825.12330531
 30
0.0
 11
-71.75411825
 21
1979.62330531
 31
0.0
  0
LINE
  5
385
100
AcDbEntity
  8
0
100
AcDbLine
 10
-71.75411825
 20
1692.62330531
 30
0.0
 11
-71.75411825
 21
1716.62330531
 31
0.0
  0
LINE
  5
386
100
AcDbEntity
  8
0
100
AcDbLine
 10
28.24588175
 20
1692.62330531
 30
0.0
 11
-71.75411825
 21
1692.62330531
 31
0.0
  0
LINE
  5
387
100
AcDbEntity
  8
0
100
AcDbLine
 10
28.24588175
 20
1825.12330531
 30
0.0
 11
28.24588175
 21
1979.62330531
 31
0.0
  0
LINE
  5
388
100
AcDbEntity
  8
0
100
AcDbLine
 10
28.24588175
 20
1692.62330531
 30
0.0
 11
28.24588175
 21
1716.62330531
 31
0.0
  0
ENDBLK
  5
389
100
AcDbEntity
  8
0
100
AcDbBlockEnd
  0
BLOCK
  5
38A
100
AcDbEntity
  8
0
100
AcDbBlockBegin
  2
SCHUTZHAUBE_00070
 70
    64
 10
0.0
 20
0.0
 30
0.0
  3
SCHUTZHAUBE_00070
  0
INSERT
  5
38B
100
AcDbEntity
  8
0
100
AcDbBlockReference
  2
SCHUTZHAUBE_00071
 10
0.0
 20
0.0
 30
0.0
  0
INSERT
  5
38C
100
AcDbEntity
  8
0
100
AcDbBlockReference
  2
SCHUTZHAUBE_00073
 10
0.0
 20
0.0
 30
0.0
  0
ENDBLK
  5
38D
100
AcDbEntity
  8
0
100
AcDbBlockEnd
  0
BLOCK
  5
38E
100
AcDbEntity
  8
0
100
AcDbBlockBegin
  2
SCHUTZHAUBE_00071
 70
    64
 10
0.0
 20
0.0
 30
0.0
  3
SCHUTZHAUBE_00071
  0
INSERT
  5
38F
100
AcDbEntity
  8
0
100
AcDbBlockReference
  2
_SCHUTZHAUBE_00072
 10
-256.75411825
 20
1192.62330531
 30
0.0
  0
ENDBLK
  5
390
100
AcDbEntity
  8
0
100
AcDbBlockEnd
  0
BLOCK
  5
391
100
AcDbEntity
  8
0
100
AcDbBlockBegin
  2
_SCHUTZHAUBE_00072
 70
    64
 10
-256.75411825
 20
1192.62330531
 30
0.0
  3
_SCHUTZHAUBE_00072
  0
LINE
  5
392
100
AcDbEntity
  8
0
100
AcDbLine
 10
-256.75411825
 20
1192.62330531
 30
0.0
 11
-314.75411825
 21
1192.62330531
 31
0.0
  0
LINE
  5
393
100
AcDbEntity
  8
0
100
AcDbLine
 10
711.24588175
 20
1192.62330531
 30
0.0
 11
653.24588175
 21
1192.62330531
 31
0.0
  0
LINE
  5
394
100
AcDbEntity
  8
0
100
AcDbLine
 10
-317.58254537
 20
1192.62330531
 30
0.0
 11
-317.58254537
 21
1194.62330531
 31
0.0
  0
LINE
  5
395
100
AcDbEntity
  8
0
100
AcDbLine
 10
653.24588175
 20
1194.62330531
 30
0.0
 11
714.07430888
 21
1194.62330531
 31
0.0
  0
LINE
  5
396
100
AcDbEntity
  8
0
100
AcDbLine
 10
-317.58254537
 20
1194.62330531
 30
0.0
 11
-256.75411825
 21
1194.62330531
 31
0.0
  0
LINE
  5
397
100
AcDbEntity
  8
0
100
AcDbLine
 10
714.07430888
 20
1194.62330531
 30
0.0
 11
714.07430888
 21
1192.62330531
 31
0.0
  0
LINE
  5
398
100
AcDbEntity
  8
0
100
AcDbLine
 10
791.24588175
 20
1192.62330531
 30
0.0
 11
711.24588175
 21
1192.62330531
 31
0.0
  0
LINE
  5
399
100
AcDbEntity
  8
0
100
AcDbLine
 10
591.24588175
 20
1037.12330531
 30
0.0
 11
591.24588175
 21
1192.62330531
 31
0.0
  0
LINE
  5
39A
100
AcDbEntity
  8
0
100
AcDbLine
 10
591.24588175
 20
879.62330531
 30
0.0
 11
591.24588175
 21
928.62330531
 31
0.0
  0
LINE
  5
39B
100
AcDbEntity
  8
0
100
AcDbLine
 10
-194.75411825
 20
1060.12330531
 30
0.0
 11
-194.75411825
 21
879.62330531
 31
0.0
  0
LINE
  5
39C
100
AcDbEntity
  8
0
100
AcDbLine
 10
-194.75411825
 20
1192.62330531
 30
0.0
 11
-194.75411825
 21
1168.62330531
 31
0.0
  0
LINE
  5
39D
100
AcDbEntity
  8
0
100
AcDbLine
 10
-314.75411825
 20
1192.62330531
 30
0.0
 11
-394.75411825
 21
1192.62330531
 31
0.0
  0
LINE
  5
39E
100
AcDbEntity
  8
0
100
AcDbLine
 10
-396.75411825
 20
1192.62330531
 30
0.0
 11
-396.75411825
 21
877.62330531
 31
0.0
  0
LINE
  5
39F
100
AcDbEntity
  8
0
100
AcDbLine
 10
-394.75411825
 20
879.62330531
 30
0.0
 11
-396.75411825
 21
877.62330531
 31
0.0
  0
LINE
  5
3A0
100
AcDbEntity
  8
0
100
AcDbLine
 10
-394.75411825
 20
1192.62330531
 30
0.0
 11
-394.75411825
 21
879.62330531
 31
0.0
  0
LINE
  5
3A1
100
AcDbEntity
  8
0
100
AcDbLine
 10
-394.75411825
 20
1192.62330531
 30
0.0
 11
-396.75411825
 21
1192.62330531
 31
0.0
  0
POLYLINE
  5
3A2
100
AcDbEntity
  8
0
100
AcDb2dPolyline
 66
     1
  0
VERTEX
  5
3A3
100
AcDbEntity
  8
0
100
AcDbVertex
100
AcDb2dVertex
 10
-394.75411825
 20
879.62330531
 30
0.0
  0
VERTEX
  5
3A4
100
AcDbEntity
  8
0
100
AcDbVertex
100
AcDb2dVertex
 10
791.24588175
 20
879.62330531
 30
0.0
  0
VERTEX
  5
3A5
100
AcDbEntity
  8
0
100
AcDbVertex
100
AcDb2dVertex
 10
793.24588175
 20
877.62330531
 30
0.0
  0
SEQEND
  5
3A6
100
AcDbEntity
  8
0
  0
POLYLINE
  5
3A7
100
AcDbEntity
  8
0
100
AcDb2dPolyline
 66
     1
  0
VERTEX
  5
3A8
100
AcDbEntity
  8
0
100
AcDbVertex
100
AcDb2dVertex
 10
-396.75411825
 20
877.62330531
 30
0.0
  0
VERTEX
  5
3A9
100
AcDbEntity
  8
0
100
AcDbVertex
100
AcDb2dVertex
 10
793.24588175
 20
877.62330531
 30
0.0
  0
VERTEX
  5
3AA
100
AcDbEntity
  8
0
100
AcDbVertex
100
AcDb2dVertex
 10
793.24588175
 20
1192.62330531
 30
0.0
  0
VERTEX
  5
3AB
100
AcDbEntity
  8
0
100
AcDbVertex
100
AcDb2dVertex
 10
791.24588175
 20
1192.62330531
 30
0.0
  0
SEQEND
  5
3AC
100
AcDbEntity
  8
0
  0
LINE
  5
3AD
100
AcDbEntity
  8
0
100
AcDbLine
 10
791.24588175
 20
879.62330531
 30
0.0
 11
791.24588175
 21
1192.62330531
 31
0.0
  0
ENDBLK
  5
3AE
100
AcDbEntity
  8
0
100
AcDbBlockEnd
  0
BLOCK
  5
3AF
100
AcDbEntity
  8
0
100
AcDbBlockBegin
  2
SCHUTZHAUBE_00073
 70
    64
 10
0.0
 20
0.0
 30
0.0
  3
SCHUTZHAUBE_00073
  0
INSERT
  5
3B0
100
AcDbEntity
  8
0
100
AcDbBlockReference
  2
_SCHUTZHAUBE_00074
 10
-256.75411825
 20
1692.62330531
 30
0.0
  0
ENDBLK
  5
3B1
100
AcDbEntity
  8
0
100
AcDbBlockEnd
  0
BLOCK
  5
3B2
100
AcDbEntity
  8
0
100
AcDbBlockBegin
  2
_SCHUTZHAUBE_00074
 70
    64
 10
-256.75411825
 20
1692.62330531
 30
0.0
  3
_SCHUTZHAUBE_00074
  0
LINE
  5
3B3
100
AcDbEntity
  8
0
100
AcDbLine
 10
-256.75411825
 20
1692.62330531
 30
0.0
 11
-314.75411825
 21
1692.62330531
 31
0.0
  0
LINE
  5
3B4
100
AcDbEntity
  8
0
100
AcDbLine
 10
711.24588175
 20
1692.62330531
 30
0.0
 11
653.24588175
 21
1692.62330531
 31
0.0
  0
LINE
  5
3B5
100
AcDbEntity
  8
0
100
AcDbLine
 10
-317.58254537
 20
1692.62330531
 30
0.0
 11
-317.58254537
 21
1690.62330531
 31
0.0
  0
LINE
  5
3B6
100
AcDbEntity
  8
0
100
AcDbLine
 10
653.24588175
 20
1690.62330531
 30
0.0
 11
714.07430888
 21
1690.62330531
 31
0.0
  0
LINE
  5
3B7
100
AcDbEntity
  8
0
100
AcDbLine
 10
-317.58254537
 20
1690.62330531
 30
0.0
 11
-256.75411825
 21
1690.62330531
 31
0.0
  0
LINE
  5
3B8
100
AcDbEntity
  8
0
100
AcDbLine
 10
714.07430888
 20
1690.62330531
 30
0.0
 11
714.07430888
 21
1692.62330531
 31
0.0
  0
LINE
  5
3B9
100
AcDbEntity
  8
0
100
AcDbLine
 10
791.24588175
 20
1692.62330531
 30
0.0
 11
711.24588175
 21
1692.62330531
 31
0.0
  0
LINE
  5
3BA
100
AcDbEntity
  8
0
100
AcDbLine
 10
591.24588175
 20
1848.12330531
 30
0.0
 11
591.24588175
 21
1692.62330531
 31
0.0
  0
LINE
  5
3BB
100
AcDbEntity
  8
0
100
AcDbLine
 10
591.24588175
 20
2005.62330531
 30
0.0
 11
591.24588175
 21
1956.62330531
 31
0.0
  0
LINE
  5
3BC
100
AcDbEntity
  8
0
100
AcDbLine
 10
-194.75411825
 20
1825.12330531
 30
0.0
 11
-194.75411825
 21
2005.62330531
 31
0.0
  0
LINE
  5
3BD
100
AcDbEntity
  8
0
100
AcDbLine
 10
-194.75411825
 20
1692.62330531
 30
0.0
 11
-194.75411825
 21
1716.62330531
 31
0.0
  0
POLYLINE
  5
3BE
100
AcDbEntity
  8
0
100
AcDb2dPolyline
 66
     1
  0
VERTEX
  5
3BF
100
AcDbEntity
  8
0
100
AcDbVertex
100
AcDb2dVertex
 10
-314.75411825
 20
1692.62330531
 30
0.0
  0
VERTEX
  5
3C0
100
AcDbEntity
  8
0
100
AcDbVertex
100
AcDb2dVertex
 10
-394.75411825
 20
1692.62330531
 30
0.0
  0
VERTEX
  5
3C1
100
AcDbEntity
  8
0
100
AcDbVertex
100
AcDb2dVertex
 10
-396.75411825
 20
1692.62330531
 30
0.0
  0
VERTEX
  5
3C2
100
AcDbEntity
  8
0
100
AcDbVertex
100
AcDb2dVertex
 10
-396.75411825
 20
2007.62330531
 30
0.0
  0
SEQEND
  5
3C3
100
AcDbEntity
  8
0
  0
LINE
  5
3C4
100
AcDbEntity
  8
0
100
AcDbLine
 10
-394.75411825
 20
2005.62330531
 30
0.0
 11
-396.75411825
 21
2007.62330531
 31
0.0
  0
POLYLINE
  5
3C5
100
AcDbEntity
  8
0
100
AcDb2dPolyline
 66
     1
  0
VERTEX
  5
3C6
100
AcDbEntity
  8
0
100
AcDbVertex
100
AcDb2dVertex
 10
-394.75411825
 20
1692.62330531
 30
0.0
  0
VERTEX
  5
3C7
100
AcDbEntity
  8
0
100
AcDbVertex
100
AcDb2dVertex
 10
-394.75411825
 20
2005.62330531
 30
0.0
  0
VERTEX
  5
3C8
100
AcDbEntity
  8
0
100
AcDbVertex
100
AcDb2dVertex
 10
791.24588175
 20
2005.62330531
 30
0.0
  0
VERTEX
  5
3C9
100
AcDbEntity
  8
0
100
AcDbVertex
100
AcDb2dVertex
 10
793.24588175
 20
2007.62330531
 30
0.0
  0
SEQEND
  5
3CA
100
AcDbEntity
  8
0
  0
POLYLINE
  5
3CB
100
AcDbEntity
  8
0
100
AcDb2dPolyline
 66
     1
  0
VERTEX
  5
3CC
100
AcDbEntity
  8
0
100
AcDbVertex
100
AcDb2dVertex
 10
-396.75411825
 20
2007.62330531
 30
0.0
  0
VERTEX
  5
3CD
100
AcDbEntity
  8
0
100
AcDbVertex
100
AcDb2dVertex
 10
793.24588175
 20
2007.62330531
 30
0.0
  0
VERTEX
  5
3CE
100
AcDbEntity
  8
0
100
AcDbVertex
100
AcDb2dVertex
 10
793.24588175
 20
1692.62330531
 30
0.0
  0
VERTEX
  5
3CF
100
AcDbEntity
  8
0
100
AcDbVertex
100
AcDb2dVertex
 10
791.24588175
 20
1692.62330531
 30
0.0
  0
SEQEND
  5
3D0
100
AcDbEntity
  8
0
  0
LINE
  5
3D1
100
AcDbEntity
  8
0
100
AcDbLine
 10
791.24588175
 20
2005.62330531
 30
0.0
 11
791.24588175
 21
1692.62330531
 31
0.0
  0
ENDBLK
  5
3D2
100
AcDbEntity
  8
0
100
AcDbBlockEnd
  0
BLOCK
  5
3D3
100
AcDbEntity
  8
0
100
AcDbBlockBegin
  2
FLIEHGEWICHT_00075
 70
    64
 10
0.0
 20
0.0
 30
0.0
  3
FLIEHGEWICHT_00075
  0
INSERT
  5
3D4
100
AcDbEntity
  8
0
100
AcDbBlockReference
  2
FLIEHGEWICHT_00076
 10
0.0
 20
0.0
 30
0.0
  0
INSERT
  5
3D5
100
AcDbEntity
  8
0
100
AcDbBlockReference
  2
FLIEHGEWICHT_00081
 10
0.0
 20
0.0
 30
0.0
  0
ENDBLK
  5
3D6
100
AcDbEntity
  8
0
100
AcDbBlockEnd
  0
BLOCK
  5
3D7
100
AcDbEntity
  8
0
100
AcDbBlockBegin
  2
FLIEHGEWICHT_00076
 70
    64
 10
0.0
 20
0.0
 30
0.0
  3
FLIEHGEWICHT_00076
  0
INSERT
  5
3D8
100
AcDbEntity
  8
0
100
AcDbBlockReference
  2
FLIEHGEWICHT_00077
 10
0.0
 20
0.0
 30
0.0
  0
INSERT
  5
3D9
100
AcDbEntity
  8
0
100
AcDbBlockReference
  2
FLIEHGEWICHT_00079
 10
0.0
 20
0.0
 30
0.0
  0
ENDBLK
  5
3DA
100
AcDbEntity
  8
0
100
AcDbBlockEnd
  0
BLOCK
  5
3DB
100
AcDbEntity
  8
0
100
AcDbBlockBegin
  2
FLIEHGEWICHT_00077
 70
    64
 10
0.0
 20
0.0
 30
0.0
  3
FLIEHGEWICHT_00077
  0
INSERT
  5
3DC
100
AcDbEntity
  8
0
100
AcDbBlockReference
  2
_FLIEHGEWICHT_00078
 10
33.16412933
 20
1825.12330531
 30
0.0
  0
ENDBLK
  5
3DD
100
AcDbEntity
  8
0
100
AcDbBlockEnd
  0
BLOCK
  5
3DE
100
AcDbEntity
  8
0
100
AcDbBlockBegin
  2
_FLIEHGEWICHT_00078
 70
    64
 10
33.16412933
 20
1825.12330531
 30
0.0
  3
_FLIEHGEWICHT_00078
  0
LINE
  5
3DF
100
AcDbEntity
  8
0
100
AcDbLine
 10
33.16412933
 20
1825.12330531
 30
0.0
 11
63.24588175
 21
1825.12330531
 31
0.0
  0
LINE
  5
3E0
100
AcDbEntity
  8
0
100
AcDbLine
 10
63.24588175
 20
1716.62330531
 30
0.0
 11
63.24588175
 21
1825.12330531
 31
0.0
  0
LINE
  5
3E1
100
AcDbEntity
  8
0
100
AcDbLine
 10
33.16412933
 20
1716.62330531
 30
0.0
 11
63.24588175
 21
1716.62330531
 31
0.0
  0
LINE
  5
3E2
100
AcDbEntity
  8
0
100
AcDbLine
 10
33.16412933
 20
1716.62330531
 30
0.0
 11
33.16412933
 21
1825.12330531
 31
0.0
  0
LINE
  5
3E3
100
AcDbEntity
  8
0
100
AcDbLine
 10
-101.20973454
 20
1825.12330531
 30
0.0
 11
33.16412933
 21
1825.12330531
 31
0.0
  0
LINE
  5
3E4
100
AcDbEntity
  8
0
100
AcDbLine
 10
-101.20973454
 20
1716.62330531
 30
0.0
 11
-101.20973454
 21
1825.12330531
 31
0.0
  0
LINE
  5
3E5
100
AcDbEntity
  8
0
100
AcDbLine
 10
-101.20973454
 20
1716.62330531
 30
0.0
 11
33.16412933
 21
1716.62330531
 31
0.0
  0
LINE
  5
3E6
100
AcDbEntity
  8
0
100
AcDbLine
 10
-371.75411825
 20
1716.62330531
 30
0.0
 11
-101.20973454
 21
1716.62330531
 31
0.0
  0
POLYLINE
  5
3E7
100
AcDbEntity
  8
0
100
AcDb2dPolyline
 66
     1
  0
VERTEX
  5
3E8
100
AcDbEntity
  8
0
100
AcDbVertex
100
AcDb2dVertex
 10
-371.75411825
 20
1716.62330531
 30
0.0
  0
VERTEX
  5
3E9
100
AcDbEntity
  8
0
100
AcDbVertex
100
AcDb2dVertex
 10
-371.75411825
 20
1825.12330531
 30
0.0
  0
VERTEX
  5
3EA
100
AcDbEntity
  8
0
100
AcDbVertex
100
AcDb2dVertex
 10
-101.20973454
 20
1825.12330531
 30
0.0
  0
SEQEND
  5
3EB
100
AcDbEntity
  8
0
  0
ENDBLK
  5
3EC
100
AcDbEntity
  8
0
100
AcDbBlockEnd
  0
BLOCK
  5
3ED
100
AcDbEntity
  8
0
100
AcDbBlockBegin
  2
FLIEHGEWICHT_00079
 70
    64
 10
0.0
 20
0.0
 30
0.0
  3
FLIEHGEWICHT_00079
  0
INSERT
  5
3EE
100
AcDbEntity
  8
0
100
AcDbBlockReference
  2
_FLIEHGEWICHT_00080
 10
363.32763418
 20
1848.12330531
 30
0.0
  0
ENDBLK
  5
3EF
100
AcDbEntity
  8
0
100
AcDbBlockEnd
  0
BLOCK
  5
3F0
100
AcDbEntity
  8
0
100
AcDbBlockBegin
  2
_FLIEHGEWICHT_00080
 70
    64
 10
363.32763418
 20
1848.12330531
 30
0.0
  3
_FLIEHGEWICHT_00080
  0
POLYLINE
  5
3F1
100
AcDbEntity
  8
0
100
AcDb2dPolyline
 66
     1
  0
VERTEX
  5
3F2
100
AcDbEntity
  8
0
100
AcDbVertex
100
AcDb2dVertex
 10
363.32763418
 20
1848.12330531
 30
0.0
  0
VERTEX
  5
3F3
100
AcDbEntity
  8
0
100
AcDbVertex
100
AcDb2dVertex
 10
363.32763418
 20
1956.62330531
 30
0.0
  0
VERTEX
  5
3F4
100
AcDbEntity
  8
0
100
AcDbVertex
100
AcDb2dVertex
 10
497.70149804
 20
1956.62330531
 30
0.0
  0
SEQEND
  5
3F5
100
AcDbEntity
  8
0
  0
LINE
  5
3F6
100
AcDbEntity
  8
0
100
AcDbLine
 10
497.70149804
 20
1848.12330531
 30
0.0
 11
497.70149804
 21
1956.62330531
 31
0.0
  0
LINE
  5
3F7
100
AcDbEntity
  8
0
100
AcDbLine
 10
363.32763418
 20
1848.12330531
 30
0.0
 11
497.70149804
 21
1848.12330531
 31
0.0
  0
LINE
  5
3F8
100
AcDbEntity
  8
0
100
AcDbLine
 10
333.24588175
 20
1848.12330531
 30
0.0
 11
363.32763418
 21
1848.12330531
 31
0.0
  0
POLYLINE
  5
3F9
100
AcDbEntity
  8
0
100
AcDb2dPolyline
 66
     1
  0
VERTEX
  5
3FA
100
AcDbEntity
  8
0
100
AcDbVertex
100
AcDb2dVertex
 10
333.24588175
 20
1848.12330531
 30
0.0
  0
VERTEX
  5
3FB
100
AcDbEntity
  8
0
100
AcDbVertex
100
AcDb2dVertex
 10
333.24588175
 20
1956.62330531
 30
0.0
  0
VERTEX
  5
3FC
100
AcDbEntity
  8
0
100
AcDbVertex
100
AcDb2dVertex
 10
363.32763418
 20
1956.62330531
 30
0.0
  0
SEQEND
  5
3FD
100
AcDbEntity
  8
0
  0
POLYLINE
  5
3FE
100
AcDbEntity
  8
0
100
AcDb2dPolyline
 66
     1
  0
VERTEX
  5
3FF
100
AcDbEntity
  8
0
100
AcDbVertex
100
AcDb2dVertex
 10
497.70149804
 20
1848.12330531
 30
0.0
  0
VERTEX
  5
400
100
AcDbEntity
  8
0
100
AcDbVertex
100
AcDb2dVertex
 10
768.24588175
 20
1848.12330531
 30
0.0
  0
VERTEX
  5
401
100
AcDbEntity
  8
0
100
AcDbVertex
100
AcDb2dVertex
 10
768.24588175
 20
1956.62330531
 30
0.0
  0
SEQEND
  5
402
100
AcDbEntity
  8
0
  0
LINE
  5
403
100
AcDbEntity
  8
0
100
AcDbLine
 10
497.70149804
 20
1956.62330531
 30
0.0
 11
768.24588175
 21
1956.62330531
 31
0.0
  0
ENDBLK
  5
404
100
AcDbEntity
  8
0
100
AcDbBlockEnd
  0
BLOCK
  5
405
100
AcDbEntity
  8
0
100
AcDbBlockBegin
  2
FLIEHGEWICHT_00081
 70
    64
 10
0.0
 20
0.0
 30
0.0
  3
FLIEHGEWICHT_00081
  0
INSERT
  5
406
100
AcDbEntity
  8
0
100
AcDbBlockReference
  2
FLIEHGEWICHT_00082
 10
0.0
 20
0.0
 30
0.0
  0
INSERT
  5
407
100
AcDbEntity
  8
0
100
AcDbBlockReference
  2
FLIEHGEWICHT_00084
 10
0.0
 20
0.0
 30
0.0
  0
ENDBLK
  5
408
100
AcDbEntity
  8
0
100
AcDbBlockEnd
  0
BLOCK
  5
409
100
AcDbEntity
  8
0
100
AcDbBlockBegin
  2
FLIEHGEWICHT_00082
 70
    64
 10
0.0
 20
0.0
 30
0.0
  3
FLIEHGEWICHT_00082
  0
INSERT
  5
40A
100
AcDbEntity
  8
0
100
AcDbBlockReference
  2
_FLIEHGEWICHT_00083
 10
-371.75411825
 20
1060.12330531
 30
0.0
  0
ENDBLK
  5
40B
100
AcDbEntity
  8
0
100
AcDbBlockEnd
  0
BLOCK
  5
40C
100
AcDbEntity
  8
0
100
AcDbBlockBegin
  2
_FLIEHGEWICHT_00083
 70
    64
 10
-371.75411825
 20
1060.12330531
 30
0.0
  3
_FLIEHGEWICHT_00083
  0
LINE
  5
40D
100
AcDbEntity
  8
0
100
AcDbLine
 10
-371.75411825
 20
1060.12330531
 30
0.0
 11
-101.20973454
 21
1060.12330531
 31
0.0
  0
LINE
  5
40E
100
AcDbEntity
  8
0
100
AcDbLine
 10
-101.20973454
 20
1168.62330531
 30
0.0
 11
-101.20973454
 21
1060.12330531
 31
0.0
  0
LINE
  5
40F
100
AcDbEntity
  8
0
100
AcDbLine
 10
-371.75411825
 20
1168.62330531
 30
0.0
 11
-101.20973454
 21
1168.62330531
 31
0.0
  0
LINE
  5
410
100
AcDbEntity
  8
0
100
AcDbLine
 10
-371.75411825
 20
1168.62330531
 30
0.0
 11
-371.75411825
 21
1060.12330531
 31
0.0
  0
POLYLINE
  5
411
100
AcDbEntity
  8
0
100
AcDb2dPolyline
 66
     1
  0
VERTEX
  5
412
100
AcDbEntity
  8
0
100
AcDbVertex
100
AcDb2dVertex
 10
-101.20973454
 20
1168.62330531
 30
0.0
  0
VERTEX
  5
413
100
AcDbEntity
  8
0
100
AcDbVertex
100
AcDb2dVertex
 10
33.16412933
 20
1168.62330531
 30
0.0
  0
VERTEX
  5
414
100
AcDbEntity
  8
0
100
AcDbVertex
100
AcDb2dVertex
 10
33.16412933
 20
1060.12330531
 30
0.0
  0
SEQEND
  5
415
100
AcDbEntity
  8
0
  0
POLYLINE
  5
416
100
AcDbEntity
  8
0
100
AcDb2dPolyline
 66
     1
  0
VERTEX
  5
417
100
AcDbEntity
  8
0
100
AcDbVertex
100
AcDb2dVertex
 10
-101.20973454
 20
1060.12330531
 30
0.0
  0
VERTEX
  5
418
100
AcDbEntity
  8
0
100
AcDbVertex
100
AcDb2dVertex
 10
33.16412933
 20
1060.12330531
 30
0.0
  0
VERTEX
  5
419
100
AcDbEntity
  8
0
100
AcDbVertex
100
AcDb2dVertex
 10
63.24588175
 20
1060.12330531
 30
0.0
  0
SEQEND
  5
41A
100
AcDbEntity
  8
0
  0
LINE
  5
41B
100
AcDbEntity
  8
0
100
AcDbLine
 10
63.24588175
 20
1168.62330531
 30
0.0
 11
63.24588175
 21
1060.12330531
 31
0.0
  0
LINE
  5
41C
100
AcDbEntity
  8
0
100
AcDbLine
 10
33.16412933
 20
1168.62330531
 30
0.0
 11
63.24588175
 21
1168.62330531
 31
0.0
  0
ENDBLK
  5
41D
100
AcDbEntity
  8
0
100
AcDbBlockEnd
  0
BLOCK
  5
41E
100
AcDbEntity
  8
0
100
AcDbBlockBegin
  2
FLIEHGEWICHT_00084
 70
    64
 10
0.0
 20
0.0
 30
0.0
  3
FLIEHGEWICHT_00084
  0
INSERT
  5
41F
100
AcDbEntity
  8
0
100
AcDbBlockReference
  2
_FLIEHGEWICHT_00085
 10
333.24588175
 20
928.62330531
 30
0.0
  0
ENDBLK
  5
420
100
AcDbEntity
  8
0
100
AcDbBlockEnd
  0
BLOCK
  5
421
100
AcDbEntity
  8
0
100
AcDbBlockBegin
  2
_FLIEHGEWICHT_00085
 70
    64
 10
333.24588175
 20
928.62330531
 30
0.0
  3
_FLIEHGEWICHT_00085
  0
LINE
  5
422
100
AcDbEntity
  8
0
100
AcDbLine
 10
333.24588175
 20
928.62330531
 30
0.0
 11
363.32763418
 21
928.62330531
 31
0.0
  0
LINE
  5
423
100
AcDbEntity
  8
0
100
AcDbLine
 10
363.32763418
 20
1037.12330531
 30
0.0
 11
363.32763418
 21
928.62330531
 31
0.0
  0
LINE
  5
424
100
AcDbEntity
  8
0
100
AcDbLine
 10
333.24588175
 20
1037.12330531
 30
0.0
 11
363.32763418
 21
1037.12330531
 31
0.0
  0
LINE
  5
425
100
AcDbEntity
  8
0
100
AcDbLine
 10
333.24588175
 20
1037.12330531
 30
0.0
 11
333.24588175
 21
928.62330531
 31
0.0
  0
POLYLINE
  5
426
100
AcDbEntity
  8
0
100
AcDb2dPolyline
 66
     1
  0
VERTEX
  5
427
100
AcDbEntity
  8
0
100
AcDbVertex
100
AcDb2dVertex
 10
363.32763418
 20
1037.12330531
 30
0.0
  0
VERTEX
  5
428
100
AcDbEntity
  8
0
100
AcDbVertex
100
AcDb2dVertex
 10
497.70149804
 20
1037.12330531
 30
0.0
  0
VERTEX
  5
429
100
AcDbEntity
  8
0
100
AcDbVertex
100
AcDb2dVertex
 10
497.70149804
 20
928.62330531
 30
0.0
  0
SEQEND
  5
42A
100
AcDbEntity
  8
0
  0
POLYLINE
  5
42B
100
AcDbEntity
  8
0
100
AcDb2dPolyline
 66
     1
  0
VERTEX
  5
42C
100
AcDbEntity
  8
0
100
AcDbVertex
100
AcDb2dVertex
 10
363.32763418
 20
928.62330531
 30
0.0
  0
VERTEX
  5
42D
100
AcDbEntity
  8
0
100
AcDbVertex
100
AcDb2dVertex
 10
497.70149804
 20
928.62330531
 30
0.0
  0
VERTEX
  5
42E
100
AcDbEntity
  8
0
100
AcDbVertex
100
AcDb2dVertex
 10
768.24588175
 20
928.62330531
 30
0.0
  0
SEQEND
  5
42F
100
AcDbEntity
  8
0
  0
LINE
  5
430
100
AcDbEntity
  8
0
100
AcDbLine
 10
768.24588175
 20
1037.12330531
 30
0.0
 11
768.24588175
 21
928.62330531
 31
0.0
  0
LINE
  5
431
100
AcDbEntity
  8
0
100
AcDbLine
 10
497.70149804
 20
1037.12330531
 30
0.0
 11
768.24588175
 21
1037.12330531
 31
0.0
  0
ENDBLK
  5
432
100
AcDbEntity
  8
0
100
AcDbBlockEnd
  0
BLOCK
  5
433
100
AcDbEntity
  8
0
100
AcDbBlockBegin
  2
ANSCHLUßFLANSCH_00086
 70
    64
 10
0.0
 20
0.0
 30
0.0
  3
ANSCHLUßFLANSCH_00086
  0
INSERT
  5
434
100
AcDbEntity
  8
0
100
AcDbBlockReference
  2
_ANSCHLUßFLANSCH_00087
 10
-146.75411825
 20
1979.62330531
 30
0.0
  0
ENDBLK
  5
435
100
AcDbEntity
  8
0
100
AcDbBlockEnd
  0
BLOCK
  5
436
100
AcDbEntity
  8
0
100
AcDbBlockBegin
  2
_ANSCHLUßFLANSCH_00087
 70
    64
 10
-146.75411825
 20
1979.62330531
 30
0.0
  3
_ANSCHLUßFLANSCH_00087
  0
LINE
  5
437
100
AcDbEntity
  8
0
100
AcDbLine
 10
-146.75411825
 20
1979.62330531
 30
0.0
 11
-146.75411825
 21
2005.62330531
 31
0.0
  0
LINE
  5
438
100
AcDbEntity
  8
0
100
AcDbLine
 10
103.24588175
 20
1979.62330531
 30
0.0
 11
-146.75411825
 21
1979.62330531
 31
0.0
  0
LINE
  5
439
100
AcDbEntity
  8
0
100
AcDbLine
 10
103.24588175
 20
1979.62330531
 30
0.0
 11
103.24588175
 21
2005.62330531
 31
0.0
  0
ENDBLK
  5
43A
100
AcDbEntity
  8
0
100
AcDbBlockEnd
  0
ENDSEC
  0
SECTION
  2
ENTITIES
  0
INSERT
  5
43B
100
AcDbEntity
  8
0
100
AcDbBlockReference
  2
ANS3D02_00001
 10
0.0
 20
0.0
 30
0.0
  0
INSERT
  5
43C
100
AcDbEntity
  8
0
100
AcDbBlockReference
  2
ANS3D03_00015
 10
0.0
 20
0.0
 30
0.0
  0
INSERT
  5
43D
100
AcDbEntity
  8
0
100
AcDbBlockReference
  2
ANS3D04_00025
 10
0.0
 20
0.0
 30
0.0
  0
INSERT
  5
43E
100
AcDbEntity
  8
0
100
AcDbBlockReference
  2
ANS3D05_00035
 10
0.0
 20
0.0
 30
0.0
  0
INSERT
  5
43F
100
AcDbEntity
  8
0
100
AcDbBlockReference
  2
ANS3D06_00056
 10
0.0
 20
0.0
 30
0.0
  0
ENDSEC
  0
SECTION
  2
OBJECTS
  0
DICTIONARY
  5
C
330
0
100
AcDbDictionary
281
     1
  3
ACAD_GROUP
350
D
  3
ACAD_LAYOUT
350
19
  3
ACAD_MLINESTYLE
350
16
  0
DICTIONARY
  5
115
330
1E
100
AcDbDictionary
280
     1
281
     1
  3
ACAD_INDEX
360
116
  0
DICTIONARY
  5
D
100
AcDbDictionary
281
     1
  0
DICTIONARY
  5
19
100
AcDbDictionary
281
     1
  3
Layout1
350
1D
  3
Model
350
21
  0
DICTIONARY
  5
16
100
AcDbDictionary
281
     1
  3
Standard
350
17
  0
DICTIONARY
  5
116
100
AcDbDictionary
281
     1
  3
*A1
350
117
  0
LAYOUT
  5
1D
100
AcDbPlotSettings
  1

  2
C:\Programme\MDT\plotters\DWF Classic.pc3
  4

  6

 40
0.0
 41
0.0
 42
0.0
 43
0.0
 44
0.0
 45
0.0
 46
0.0
 47
0.0
 48
0.0
 49
0.0
140
0.0
141
0.0
142
1.0
143
1.0
 70
   688
 72
     0
 73
     0
 74
     5
  7

 75
    16
147
1.0
148
0.0
149
0.0
100
AcDbLayout
  1
Layout1
 70
     1
 71
     1
 10
0.0
 20
0.0
 11
12.0
 21
9.0
 12
0.0
 22
0.0
 32
0.0
 14
1.000000000000000E+20
 24
1.000000000000000E+20
 34
1.000000000000000E+20
 15
-1.000000000000000E+20
 25
-1.000000000000000E+20
 35
-1.000000000000000E+20
146
0.0
 13
0.0
 23
0.0
 33
0.0
 16
1.0
 26
0.0
 36
0.0
 17
0.0
 27
1.0
 37
0.0
 76
     0
330
1A
  0
LAYOUT
  5
21
100
AcDbPlotSettings
  1

  2
C:\Programme\MDT\plotters\DWF Classic.pc3
  4

  6

 40
0.0
 41
0.0
 42
0.0
 43
0.0
 44
0.0
 45
0.0
 46
0.0
 47
0.0
 48
0.0
 49
0.0
140
0.0
141
0.0
142
1.0
143
1.0
 70
  1712
 72
     0
 73
     0
 74
     0
  7

 75
     0
147
1.0
148
0.0
149
0.0
100
AcDbLayout
  1
Model
 70
     1
 71
     0
 10
0.0
 20
0.0
 11
12.0
 21
9.0
 12
0.0
 22
0.0
 32
0.0
 14
0.0
 24
0.0
 34
0.0
 15
0.0
 25
0.0
 35
0.0
146
0.0
 13
0.0
 23
0.0
 33
0.0
 16
1.0
 26
0.0
 36
0.0
 17
0.0
 27
1.0
 37
0.0
 76
     0
330
1E
  0
MLINESTYLE
  5
17
100
AcDbMlineStyle
  2
STANDARD
 70
     0
  3

 62
   256
 51
90.0
 52
90.0
 71
     2
 49
0.5
 62
   256
  6
BYLAYER
 49
-0.5
 62
   256
  6
BYLAYER
  0
ACDBPLACEHOLDER
  5
F
  0
XRECORD
  5
129
100
AcDbXrecord
280
     1
 90
        0
  0
XRECORD
  5
12A
100
AcDbXrecord
280
     1
  1
{46C4153B-0B27-49FA-99B6-AF3E057D65BC}
  0
XRECORD
  5
122
100
AcDbXrecord
280
     1
  1

  0
XRECORD
  5
128
100
AcDbXrecord
280
     1
 90
        0
  0
XRECORD
  5
124
100
AcDbXrecord
280
     1
340
19
  0
XRECORD
  5
127
100
AcDbXrecord
280
     1
 90
    10781
  0
XRECORD
  5
125
100
AcDbXrecord
280
     1
340
18
  0
XRECORD
  5
126
100
AcDbXrecord
280
     1
340
E
  0
XRECORD
  5
12C
100
AcDbXrecord
280
     1
 40
0.0
  0
XRECORD
  5
12F
100
AcDbXrecord
280
     1
340
0
  0
XRECORD
  5
135
100
AcDbXrecord
280
     1
 10
0.0
 20
0.0
 30
0.0
  0
XRECORD
  5
131
100
AcDbXrecord
280
     1
 10
0.0
 20
0.0
 30
0.0
  0
XRECORD
  5
134
100
AcDbXrecord
280
     1
 10
0.0
 20
0.0
 30
0.0
  0
XRECORD
  5
132
100
AcDbXrecord
280
     1
 10
0.0
 20
0.0
 30
0.0
  0
XRECORD
  5
133
100
AcDbXrecord
280
     1
 10
0.0
 20
0.0
 30
0.0
  0
XRECORD
  5
130
100
AcDbXrecord
280
     1
 10
0.0
 20
0.0
 30
0.0
  0
XRECORD
  5
12D
100
AcDbXrecord
280
     1
340
0
  0
XRECORD
  5
12E
100
AcDbXrecord
280
     1
 70
     0
  0
XRECORD
  5
123
100
AcDbXrecord
280
     1
  1

  0
XRECORD
  5
120
100
AcDbXrecord
280
     1
 90
        1
  0
XRECORD
  5
121
100
AcDbXrecord
280
     1
 90
       70
  0
XRECORD
  5
138
100
AcDbXrecord
280
     1
340
0
  0
XRECORD
  5
13E
100
AcDbXrecord
280
     1
 10
0.0
 20
0.0
 30
0.0
  0
XRECORD
  5
13A
100
AcDbXrecord
280
     1
 10
0.0
 20
0.0
 30
0.0
  0
XRECORD
  5
13D
100
AcDbXrecord
280
     1
 10
0.0
 20
0.0
 30
0.0
  0
XRECORD
  5
13B
100
AcDbXrecord
280
     1
 10
0.0
 20
0.0
 30
0.0
  0
XRECORD
  5
13C
100
AcDbXrecord
280
     1
 10
0.0
 20
0.0
 30
0.0
  0
XRECORD
  5
139
100
AcDbXrecord
280
     1
 10
0.0
 20
0.0
 30
0.0
  0
XRECORD
  5
136
100
AcDbXrecord
280
     1
340
0
  0
XRECORD
  5
137
100
AcDbXrecord
280
     1
 70
     0
  0
XRECORD
  5
12B
100
AcDbXrecord
280
     1
  1
{09700D79-BD6A-4B2C-8A65-8ED4ED61BA28}
  0
DICTIONARYVAR
  5
11D
100
DictionaryVariables
280
     0
  1
1
  0
ENDSEC
  0
EOF
